Superdrag - Do The Vampire Chords & Tabs

 

Do The Vampire Chords & Tabs

Superdrag Chords & Tabs

Version: 1 Type: Tab 0 ratings
1 star 2 stars 3 stars 4 stars 5 stars
comments

Do The Vampire Tab

   
Do the Vampire
by J. Davis
arr. by Superdrag
transcribed by A. Hromas

notes-
pretty straightforward tune. only a couple of riffs, and a short
solo based on the Bb natural minor scale (Bb C C# Eb F F# Ab)
the song begins with a pickup of three eighth-note strums of Db5...

intro/verse - "in a car crash..."
    Ab5       F5            Db5
e|-----------------------|-------------------------|
B|-----------------------|-------------------------|
G|-----------------------|--6-6-6-----------1------|
D|--6---6-----3-3---3-3--|--6-6-6--OR--1--3----3\1-|
A|--6---6-----3-3---3-3--|--4-4-4------------------|
E|--4---4-----1-1---1-1--|-------------------------|
[ Tab from: http://www.guitartabs.cc/tabs/s/superdrag/do_the_vampire_tab.html ]
prechorus - "dead on the inside..."
   F#5                    G#5 Bb5
e|----------------------------------------------------|
B|----------------------------------------------------|
G|----------------------------------------------------|
D|-4---4-4--4-4--4---4-4--6-6--8---8-8--8-8--8---8-8--|
A|-4---4-4--4-4--4---4-4--6-6--8---8-8--8-8--8---8-8--|
E|-2---2-2--2-2--2---2-2--4-4--6---6-6--6-6--6---6-6--|

chorus - "we don't want to know a secret..."
   F#5             G#5             Db5             Eb5
e|-------------------------------------------------------------------|
B|-------------------------------------------------------------------|
G|---------------------------------6-6-6-6-6-6-6-6-8-8-8-8-8-8-8-8---|
D|-4-4-4-4-4-4-4-4-6-6-6-6-6-6-6-6-6-6-6-6-6-6-6-6-8-8-8-8-8-8-8-8---|
A|-4-4-4-4-4-4-4-4-6-6-6-6-6-6-6-6-4-4-4-4-4-4-4-4-6-6-6-6-6-6-6-6---|
E|-2-2-2-2-2-2-2-2-4-4-4-4-4-4-4-4-----------------------------------|







Comments