Superdrag - Bright Pavillions Chords & Tabs

 

Bright Pavillions Chords & Tabs

Superdrag Chords & Tabs

Version: 2 Type: Tab 0 ratings
1 star 2 stars 3 stars 4 stars 5 stars
comments

Bright Pavillions Tab

   
#----------------------------------PLEASE NOTE--------------------------------#
#This file is the author's own work and represents their interpretation of the#
#song. You may only use this file for private study, scholarship, or research.#
#-----------------------------------------------------------------------------#

Author/Artist: Superdrag
Title: Bright Pavilions
Album: In the Valley of Dying Stars
Transcribed by: Alan Hromas
Email: arh1983@hotmail.com

There are some weird voicings in this one....
Use:
	Amaj9	Cmaj7	Gmaj7
        -0-	-0-	-x-         
	-0-	-0-	-0-
	-6-	-4-	-2-
	-7-	-5-	-5-
	-7-	-3-	-x-
	-5-	-x-	-3-
[ Tab from: http://www.guitartabs.cc/tabs/s/superdrag/bright_pavillions_tab_ver_2.html ]
Verse:
 Cmaj7 (play 2x)                Gmaj7 (play 2x)
-------------------------------------------------------------------------------
------0-----0-------0-----0---0-----0------0--------0------0---0---------------
----------2-------------2---2------------2---------------2---2-----------------
----5---5---------5---5-----------5---5-----------5---5------------------------
--3------------3---------------------------------------------------------------
--------------------------------3--------------3-------------------------------
                                                                              
Chorus:
	|Amaj9  |       |Cmaj7  |       |
	|/ / / /|/ / / /|/ / / /|/ / / /| 

Then...(also use as the outro)
(G)                                    (Em)
----10-----10-----10--10-----10----------7-----7-----7--7-----7----------------
-------8------8----------8------8---8------5-----5--------5-----5---5----------
--7------7------7----------7------7---4------4-----4--------4-----4------------
-------------------------------------------------------------------------------
-------------------------------------------------------------------------------
-------------------------------------------------------------------------------
                                                                              


Comments