Superdrag - Brand New Love Chords & Tabs

 

Brand New Love Chords & Tabs

Superdrag Chords & Tabs

Version: 1 Type: Tab 0 ratings
1 star 2 stars 3 stars 4 stars 5 stars
comments

Brand New Love Tab

   
#----------------------------------PLEASE NOTE--------------------------------#
#This file is the author's own work and represents their interpretation of the#
#song. You may only use this file for private study, scholarship, or research.#
#-----------------------------------------------------------------------------#

Author/Artist: Superdrag
Title: Brand New Love
Album: ???
Transcribed by: Alan Hromas
Email: arh1983@hotmail.com
[ Tab from: http://www.guitartabs.cc/tabs/s/superdrag/brand_new_love_tab.html ]
Intro:
	|(D5)	|(Dsus)	|(D)	|(Dsus)	|
	|/ / / /|/ / / /|/ / / /|/ / / /| (chords implied, not played)
	
	e|-5---5---5--|-3---3---3--|-2---2---2--|-3---3---3--|
	B|--3-3-3-3-3-|--3-3-3-3-3-|--3-3-3-3-3-|--3-3-3-3-3-|
	G|------------|------------|------------|------------|
	D|------------|------------|------------|------------|
	A|------------|------------|------------|------------|
	E|------------|------------|------------|------------|

Verse: Use Intro Riff.

Chorus:
	|D	|	|A	|	|
	|/ / / /|/ / / /|/ / / /|/ / / /|

	|G	|	|	|	|
	|/ / / /|/ / / /|/ / / /|/ / / /|

	|D	|	|A	|	|
	|/ / / /|/ / / /|/ / / /|/ / / /|

	|G	|	|	|	|
	|/ / / /|/ / / /|/ / / /|/ / / /|


For Next Verse, use:
	
	e|-5---5---5--|-3---3---3--|-2---2---2--|-3---3---3--|
	B|--3---3---3-|--3---3---3-|--3---3---3-|--3---3---3-|
	G|----2---2---|----2---2---|----2---2---|----2---2---|
	D|------------|------------|------------|------------|
	A|------------|------------|------------|------------|
	E|------------|------------|------------|------------|
	

 
Comments