Superdrag - Babys Waiting Chords & Tabs

 

Babys Waiting Chords & Tabs

Superdrag Chords & Tabs

Version: 1 Type: Tab 0 ratings
1 star 2 stars 3 stars 4 stars 5 stars
comments

Babys Waiting Tab

   
#----------------------------------PLEASE NOTE--------------------------------#
#This file is the author's own work and represents their interpretation of the#
#song. You may only use this file for private study, scholarship, or research.#
#-----------------------------------------------------------------------------#
#-- File created with Instab - http://www.pconline.com/~smcarey/instab.html --#
#-----------------------------------------------------------------------------#

Author/Artist: Superdrag
Title: Baby's Waiting
Album: In the Valley of Dying Stars
Transcribed by: Alan Hromas
Email: arh1983@hotmail.com

Intro:
Chords:
	|D      |F#m    |G      |D      |F#m    |G   Bb  |
	|/ / / /|/ / / /|/ / / /|/ / / /|/ / / /|/ / /// |
[ Tab from: http://www.guitartabs.cc/tabs/s/superdrag/babys_waiting_tab.html ]
Lead Fig, Intro: (Spans 3 bars)
D                 F#m             G                         
--------(10)------------(10)---------------------------------------------------
-----(10)------------(10)------------((10)-------------------------------------
--9^---------9^9--9^---------9^9--9--------7--9--9/10\9-9----------------------
-------------------------------------------------------------------------------
-------------------------------------------------------------------------------
-------------------------------------------------------------------------------

Verse:
     4|F#m    |G   D  |       |A7sus4 |A7     |G     *|D      |
     4|/ / / /|/ / / /|/ / / /|/ / / /|/ / / /|/ / / /|/ / / /|

	|A7sus4 |A7     |G     *|D   Dmaj7|
	|/ / / /|/ / / /|/ / / /|/ / / /  |

Chorus:
	|G      |Em     |G      |Em     |G      |A7      |D     *|
	|/ / / /|/ / / /|/ / / /|/ / / /|/ / / /|/ / / / |/ / / /|

The * indicates a fill:
-------------
-10--9--7----
--x--x--x----
--8--7--5----
-------------




                                                                              


Comments