Superdrag - Baby Goes To Eleven Chords & Tabs

 

Baby Goes To Eleven Chords & Tabs

Superdrag Chords & Tabs

Version: 1 Type: Tab 0 ratings
1 star 2 stars 3 stars 4 stars 5 stars
comments

Baby Goes To Eleven Tab

   
#----------------------------------PLEASE NOTE--------------------------------#
#This file is the author's own work and represents their interpretation of the#
#song. You may only use this file for private study, scholarship, or research.#
#-----------------------------------------------------------------------------#

Author/Artist: Superdrag
Title: Baby Goes To Eleven
Album: Last Call For Vitriol
Transcribed by: Alan Hromas
Email: arh1983@hotmail.com

This is off a live recording,
kinda hard to hear, so sorry
for any mistakes.  I'll fix
'em when the new record comes
out. - Alan

Intro/Verse: (sorry, no lyrics. help me out.)

Guitar: with phaser!
  Asus2
e|-0-----------------------
B|-0-----------------------
G|-2-----------------------
D|-2----------------------- x2
A|-0-0-0-0-0-0-0-0---------
E|-------------------------
[ Tab from: http://www.guitartabs.cc/tabs/s/superdrag/baby_goes_to_eleven_tab.html ]
  Asus2/g
e|-0-----------------------
B|-0-----------------------
G|-2-----------------------
D|-2----------------------- x1
A|-x-----------------------
E|-3-3-3-3-3-3-3-3---------

  Asus2/F#
e|-0-------0----------------
B|-0-------0----------------
G|-2-------2----------------
D|-2-------2---------------- x1
A|-0-------0-0-0-0-0-0-0----
E|-2-2-2-2------------------


2nd Verse:
|A    A/G  D/F#	     |	
|//// //// //// //// |

|D/F# A/G  A	     |	
|//// //// //// //// |

Chorus:
|A/G       A	     |	
|//// //// //// //// |

Bridge: "On the outskirts..."
|A         A/G	     |	
|//// //// //// //// |


D/F# - 2x0230

                                                                              


Comments