Supercoolthing - Soulless Lullabies Chords & Tabs

 

Soulless Lullabies Chords & Tabs

Supercoolthing Chords & Tabs

Version: 2 Type: Tab 0 ratings
1 star 2 stars 3 stars 4 stars 5 stars
comments

Soulless Lullabies Tab

   
-----------------------------------
Soulless Lullabies - Supercoolthing
-----------------------------------
David Thompson - bring_it_on53@hotmail.com

(CAPO 5TH FRET)
-----
Intro
-----

e|-------------0-------------------|-------------0-------------------|
B|---------1h3-----3-------3-------|---------1h3-----3-------3-------|
G|---------------------0-------0---|---------------------0-------0---|
D|-----2---------------------------|-----2---------------------------|
A|-3-------------------------------|-3-------------------------------|
E|---------------------------------|---------------------------------|
   1   +   2   +   3   +   4   +     1   +   2   +   3   +   4   +

e|-------------0-------------------|-------------0-------------------|
B|---------1h3-----3-------3-------|---------1h3-----3-------3-------|
G|---------------------0-------0---|---------------------0-------0---|
D|-----2---------------------------|-----2---------------------------|
A|-0-------------------------------|-0-------------------------------|
E|---------------------------------|---------------------------------|
   1   +   2   +   3   +   4   +     1   +   2   +   3   +   4   +

e|-------------0-------------------|-------------0-------------------|
B|---------1h3-----3-------3-------|---------1h3-----3---1---0-------|
G|-----2---------------2-------2---|-----2-----------------------2---|
D|-3-------------------------------|-3-------------------------------|
A|---------------------------------|---------------------------------|
E|---------------------------------|---------------------------------|
   1   +   2   +   3   +   4   +     1   +   2   +   3   +   4   +

e|-------------0-------------------|-------------0---3---0-----------|
B|---------1h3-----3-------3-------|---------1h3-----3-------3---1---|
G|---------------------0-------0---|---------------------------------|
D|-----0---------------------------|-----0---------------------------|
A|---------------------------------|---------------------------------|
E|-3-------------------------------|-3-------------------------------|
   1   +   2   +   3   +   4   +     1   +   2   +   3   +   4   +
[ Tab from: http://www.guitartabs.cc/tabs/s/supercoolthing/soulless_lullabies_tab_ver_2.html ]
-------
Verse 1
-------
C                                Am
Hello, hello, are you under control?
                 F                            G
Do you feel my reaction to the action in your soul?
Hello, hello, are you under control?
Do you feel my reaction to the action in your soul?
Guess you lied about everything
The scene is set, and so you play your part
And you lied about being a liar
You'll only be who they think you are
You never take me there

--------
Chorus 1
--------
C                      C7
I don't want to go to sleep tonight
     F            G     C    G
The soulless Lullabies
C                              C7
Do you think you're going to sleep alright
      F           G           C     G     C      G
With all you've plagirised?

-------
Verse 2
-------
Listen, you've got to listen
Is this the end?
Where is the emotion?
'Cos it's a potion, a friend
Down, down to meaningless
The TV jingle played a thousand times
And it's making me feel alone
Since the day the music died
Never take me there

--------
Chorus 2
--------
C                      C7
I don't want to go to sleep tonight
     F            G     C    G
The soulless Lullabies
C                              C7
Do you think you're going to sleep alright
      F           G           C     G      C     E
With all you've plagirised?

----
Link
----
Am               G
Babadadabada Badadaba
Babadadabada Badadaba
Babadadabada Badadaba
Babadadabada Badadaba

--------
Chorus 3
--------
(As Chorus 2)

-----
Outro
-----
Am               G
Babadadabada Badadaba
Babadadabada Badadaba (continues in background)

I don't want to go to sleep tonight
The soulless Lullabies
Do you think you're going to sleep alright
With all you've plagirised?
Everyday a dream smithered aside
Everyday I keep trying to hide
All the ways that can fall in to time
Keep with yours 'cos the glory's mine
Comments