Super Furry Animals - The Citizens Band Chords & Tabs

 

The Citizens Band Chords & Tabs

Super Furry Animals Chords & Tabs

Version: 1 Type: Bass Tab 0 ratings
1 star 2 stars 3 stars 4 stars 5 stars
comments

The Citizens Band Bass Tab

   
The Citizens Band
SUPER FURRY ANIMALS
The Matter Of Time
http://arrive.at/sfabass

Tabbed by: thecosmictrigger

verse: 
g:-----------------:  -------------------:
d:--------4-4-4-2-4:  2-2-2-2-4-4-4-4-2-4:
a:4-4-4------------:  -------------------:
e:-----------------:x2-------------------:x2
 
[ Tab from: http://www.guitartabs.cc/tabs/s/super_furry_animals/the_citizens_band_btab.html ]
bridge (like a phone...): 
g:--------------------:
d:----------4-4-6-4-6-:
a:4-4-4-2-4-----------:
e:--------------------:x2

chorus:
g:
d:6-6-6-6---4---6-4-6-4-6-:
a:--------6---------------:4-4-4-4-4-6-4-6-6-6-6-6-4-6-4.......
e:

something like that anyway...the ending is a crazy version of the chorus

Comments