Super Furry Animals - Rings Around The World Chords & Tabs

 

Rings Around The World Chords & Tabs

Super Furry Animals Chords & Tabs

Version: 1 Type: Bass Tab 0 ratings
1 star 2 stars 3 stars 4 stars 5 stars
comments

Rings Around The World Bass Tab

   
----------------------------------------------------------------------------
		    RINGS AROUND THE WORLD - Super Furry Animals
----------------------------------------------------------------------------

Tabbed By : Stephen Healy
e-mail: steeeeeve13@hotmail.com

Tuning: Standard EADG

Intro
G|------------------------------------------------------------------------|
D|------------------------------------------------------------------------|
A|------7-9-----7-9-----7-9-----7-9-----7-9-----7-9-----7-9-----7-9-------|
E|---7-------7-------7-------7-------7-------7-------7-------7------------|

Verse 1 e.g. "i am glowing radioactive..."
G|------------------------------------------------------------------------|
D|----------------------------------------7-9------7-9-----9-11------9-11-|
A|------7-9------7-9-----7-9------7-9--7-------7-7------9--------9-9------|
E|---7-------7-7------7-------7-7-----------------------------------------|
[ Tab from: http://www.guitartabs.cc/tabs/s/super_furry_animals/rings_around_the_world_btab.html ]
Verse 2 e.g. "with all those meteroric stones..."
G|------------------------------------------------------------------------|
D|------7-9------7-9----9-11------9-11-----7-9------7-9-----9-11------9-11|
A|---7-------7-7------9-------9-9-------7-------7-7------9--------9-9-----|
E|------------------------------------------------------------------------|

Outro "ring ring, ring ring..."
G|------------------------------------------------------------------------|
D|--------------------------------------------10-12-------10-12-------9-11|
A|------7-9------7-9------7-9------7-9--10-10-------10-10---------9-9-----|
E|--7-7------7-7------7-7------7-7----------------------------------------|

G|------------------------------------------------------------------------|
D|-------9-11-------------------------------------------------------------|
A|---9-9------------------------------------------------------------------|
E|------------------------------------------------------------------------|

Sequence;
Intro
Verse 1 "You expose the film in me"
Verse 1 "sooner or later we will melt together"
Verse 2 "with all those meteroic stones"
Verse 1 "i am glowing radioactive"
Verse 1 "wish you could see us when we are at our best"
Verse 2 "with cans of post water in tow"
Verse 1 "earth will become saturn II"
Verse 1 "tetsuo 2 became me and you"
Verse 2 "with all those body hammer blows"
Outro "Ha Ha! Ring ring..."

so simple!

| /  slide up
| \  slide down
| h  hammer-on
| p  pull-off
| ~  vibrato
| +  harmonic
| x  Mute note
============================================================================
Comments