Super Furry Animals - Play It Cool Chords & Tabs

 

Play It Cool Chords & Tabs

Super Furry Animals Chords & Tabs

Version: 2 Type: Bass Tab 0 ratings
1 star 2 stars 3 stars 4 stars 5 stars
comments

Play It Cool Bass Tab

Play It Cool
SUPER FURRY ANIMALS
The Matter Of Time
http://arrive.at/sfabass

Tabbed by: Steph Cater

Beginning:
g:---------------------------------
d:---------------------------------
a:--------------7--5--4--0--0--2---
e:---0-----0-----------------------
[ Tab from: http://www.guitartabs.cc/tabs/s/super_furry_animals/play_it_cool_btab_ver_2.html ]
Verse riff:
g:------------------------------------------
d:------------------------------------------
a:------2--5--4--0--2-----2--5--4--0--2-----
e:---0------------------0-------------------   

Chorus riff:
g:------------------------------------
d:------------------------------------
a:---0--5--3---------------3--5--4----
e:--------------3--3--3--0------------      
Comments