Sunny Day Real Estate - One Chords & Tabs

 

One Chords & Tabs

Sunny Day Real Estate Chords & Tabs

Version: 2 Type: Bass Tab 0 ratings
1 star 2 stars 3 stars 4 stars 5 stars
comments

One Bass Tab

One
Sunny Day Real Estate
The Rising Tide

Tabbed by Matt Marchain (DirectR3@aol.com)

This is very rough, but it should be close to the song.

Legend
------
h/p: hammer on/pull off
=  : let ring

  Opening                                        (x2)
G|-----------------------------------------------|
D|-----------------------------------------------|
A|-------------------------------0--2-3-3-2------|
E|-1=======--1=======--1=======-------------3===-|

                                                                        (x2)
G|-----------------------------------------|----------------------------|
D|---3-3-2-------------3-3-2h3p2-----------|---3-3-2--------------------|
A|---------2--3------------------3-2h3p2-0-|---------2--3--0--2-3-3-2---|
E|-1-----------------1---------------------|-1------------------------3-|

rest while Jeremy sings with guitar
[ Tab from: http://www.guitartabs.cc/tabs/s/sunny_day_real_estate/one_btab_ver_2.html ]
  Bridge
G|-------------------------------------------------------------|
D|--5-5-5\2/5-------5--5/9--9---7---2----5-5/9-7---7---3-------|
A|-------------------------------------------------------------|
E|-------------------------------------------------------------|

   G|---------------------|
   D|---------2----0------|
   A|--2--3---------------|
   E|---------------------|

  Chorus (the basic chords, do a lot of improv)
G|-------------------------------------------------------|
D|-------------------------------------------------------|
A|--8-8-8-8-8-8-8-8-8-8-8-8-8-8-8-8-8-8-8-8-8-8-8-8-8-8--|
E|-------------------------------------------------------|

  G|------------------------------------------------|
  D|------------------------------------------------|
  A|-7-7-7-7-7-7-7-7-7-7-7-7-7-7--10-10-10-10-10-10-|
  E|------------------------------------------------|

Please visit sunnydayrealestate.net!
Comments