Sunny Day Real Estate - Killed By An Angel Chords & Tabs

 

Killed By An Angel Chords & Tabs

Sunny Day Real Estate Chords & Tabs

Version: 1 Type: Bass Tab 0 ratings
1 star 2 stars 3 stars 4 stars 5 stars
comments

Killed By An Angel Bass Tab

Killed by an Angel
Sunny Day Real Estate
Rising Tide

Tabbed by Matt Marchain

A wonderful song.

Legend
------
h,p:hammer on, pull off
/,\:slide up, slide down
[ Tab from: http://www.guitartabs.cc/tabs/s/sunny_day_real_estate/killed_by_an_angel_btab.html ]
  Kick-ass opening/ chorus              1st             2nd             (x2)
G|-------------------------7-----------|7-7-7-6h7p6----|-9-9-9-9-9-9-9-9|
D|------------------7--7-9---9-9-9-9-9-|------------7--|----------------|
A|-----10--10--9-10--------------------|---------------|----------------|
E|-0-0---------------------------------|---------------|----------------|
   
  Verse (improv like hell, man)                      (x8)
G|---------------------------------------------------|
D|-----------------------------------(7--7/9/10\9\5*)|
A|---------------------------------------------------|
E|-7--7-----------8--8------------5-5----------------|
                                                   *sometimes played.

then the chorus

then back to the verses

One more chorus, then.

  Interlude                                      (x4)
G|-----------------------------------------------|
D|--9-9--9--9--------------7-7--7--7-------------|
A|------------7-7--7--7--------------------------|
E|--------------------------------------7-----5--|

  G|-------------------|---------|---------------------------------|
  D|-------------------|---------|---------------------------------|
  A|-------------------|---------|---------------------------------|
  E|--7---5----3---2---|-7-5-3-2-|-7---5----3----2-----0=========--|

Verse then Chorus
End.

Oh, yeah.  Please visit sunnydayrealestate.net!

Comments