Sunny Day Real Estate - In Circles Chords & Tabs

 

In Circles Chords & Tabs

Sunny Day Real Estate Chords & Tabs

Version: 2 Type: Tab 0 ratings
1 star 2 stars 3 stars 4 stars 5 stars
comments

In Circles Tab

i cant believe theres no tab for this song on this site. owell here goes nothing..please 
my stuff and/or comment
In Circles - Sunny Day Real Estate

D Tuning (one whole step down)(DGCFAD)

Guitar 1 - Intro

d----------------------|
a----------------------|
f-12----12----12-------|
c----12----12----12----|
g----------------------|
D----------------------|

Guitar 2 - Intro

d-------------|
a-0~---0~-----|
f-0~---0~-----|
c-2~---0~-----|
g-2~---2~-----|
D-0~---3~-----|

Verses

d-2----------------3---3---3---3---3-----3---3-----|
a---3----------------3-------3---3---3-----3-------|
f-----4------------------------4---4---4-----------|
c--------------5-----------------------------------|
g---------2-3--------------------------------------|
D--------------------------------------------------|

Chorus

Guitar 1

d-----------------------|
a-12-----12----12-------|
f----12-----12-----12---|
c-----------------------|
g-----------------------|
D-----------------------|

Guitar 2

d------------------------------------------------------|
a-000000--------------------000000---------------------|
f-000000--------------------000000---------------------|
c-222222--------------------000000---------------------|
g-222222-3-2---3-2---3-2----222222-3-2---3-2---3-2-----|
D-000000-----3-----3-----3--333333-----3-----3-----3---|
[ Tab from: http://www.guitartabs.cc/tabs/s/sunny_day_real_estate/in_circles_tab_ver_2.html ]
Guitar break

d----------------------------------------------------------------|
a----------------------------------------------------------------|
f-77777--1111111111--121212121212121212/14141414141414-----------|
c-xxxxx---x-x-x-x-x--xxxxxxxxxxxxxxxxxx/xxxxxxxxxxxxxx-----------| (x2)
g-55555---9-9-9-9-9--101010101010101010/12121212121212-----------|
D----------------------------------------------------------------|

d-------------------------------------------------------|
a-------------------------------------------------------|
f-19191919/21/17171717/19/16161616----------------------|
c-xxxxxxxx/x-/xxxxxxxx/x-/xxxxxxxx----------------------|
g-17171717/19/15151515/17/14141414--3-2---3-2---3-2-----|  (x2)
D---------------------------------------3-----3-----3---|

d------------------------------------------------|
a------------------------------------------------|
f-19191919-1111111-12121212----------------------|
c-xxxxxxxx-x-x-x-x-xxxxxxxx----------------------|  (x2)
g-17171717-9-9-9-9-10101010--3-2---3-2---3-2-----|
D--------------------------------3-----3-----3---|

then guitar 2 strums this chord

d-----
a-----
f-0---
c-0---
g-x---
D-3---

and guitar 1 plays

d-----------|
a-----------|
f-9~---5~---|
c-x~---x~---|
g-7~---3~---|
D-----------|

the rest repeats ... end on

d-----
a-0---
f-0---
c-2---
g-2---
D-0---
Comments