Sunny Day Real Estate - In Circles Chords & Tabs

 

In Circles Chords & Tabs

Sunny Day Real Estate Chords & Tabs

Version: 1 Type: Bass Tab 0 ratings
1 star 2 stars 3 stars 4 stars 5 stars
comments

In Circles Bass Tab

   
'In Circles' by Sunny Day Real Estate 
From the album 'Diary'

Tabbed by Allen Dickson

'Drop D'

G--------------------------------------------------------------------
D------------3h5-3-2-3------3--------------3h5-3-2-3------3----------
A----------------------1--1--------------------------1--1------------
D--0---0---0---------------------3---3---3---------------------------

G--------------------------------------------------------------------
D------------3h5-3-2-3------3--------------3h5-3-2-3------3----------
A----------------------1--1--------------------------1--1------------
D--0---0---0---------------------3---3---3---------------------------
[ Tab from: http://www.guitartabs.cc/tabs/s/sunny_day_real_estate/in_circles_btab.html ]
G---------------------3----------------------------------------------
D---------7----------------------------------------------------------
A--0---------0--1--------1-------------------------------------------
D--------------------------------------------------------------------

And so on....

Guitar:

e----5---5---5---5---5---5---5---5-
B--6---6---6---6---6---6---6---6---
G----------------------------------
D----------------------------------
A----------------------------------
E----------------------------------

The bass in the intro just rocks especially over 
that repeating guitar part.
Listen to the album to get the timing down.
email any corrections or comments to allen.dickson@sympatico.ca

L8R
Comments