Sunk Loto - Sunken Eyes Chords & Tabs

 

Sunken Eyes Chords & Tabs

Sunk Loto Chords & Tabs

Version: 1 Type: Tab 0 ratings
1 star 2 stars 3 stars 4 stars 5 stars
comments

Sunken Eyes Tab

SUNKEN EYES
Sunk Loto
Guitarist: Luke Mcdonald
Tabbed By: Mark Piccles
Tuning: (low to high) CGCFAE (if your not playing with the cd,
it works in drop d)

(INTRO/OUTRO)
E----------------------------------------------------------
A----------------------------------------------------------
F----------------------------------------------------------
C-6-5-0-3--------------------------------------------------
G-4-5-0-3--1-2-1-2-1--0-2-2-*-0-2-*-2-*-2-0-2--------------
C---5-0-3-------------0-2-2-*-0-2-*-2-*-2-0-2--------------(x4)

(PREVERSE)
E----------------------------------------------------------
A----------------------------------------------------------
F----------------------------------------------------------
C-0-2-0-2-3-*-*-1------------------------------------------
G-0-2-0-2-3-*-*-1------------------------------------------
C-0-2-0-2-3-*-*-1------------------------------------------(x4)

The verse is wierd. When i saw them play live, luke used a 
wah-wah type sound, but on the cd, theres like a keyboard effect
or something....hmmmm......

(PRECHORUS)
E----------------------------------------------------------
A----------------------------------------------------------
F----------------------------------------------------------
C-0-2-0-2--2-3-0-------------------------------------------
G----------2-3-0-------------------------------------------
C----------2-3-0-------------------------------------------(4x)

The bit after this is the little wah sound just before the chorus. I
have no wah peddle and have no clue how to play it.

[ Tab from: http://www.guitartabs.cc/tabs/s/sunk_loto/sunken_eyes_tab.html ]
(CHORUS)
E----------------------------------------------------------
A----------------------------------------------------------
F-----------------5-5-5-5-5-5-5-5--------------------------
C-2-2-2-2-2-2-2-2-5-5-5-5-5-5-5-5--------------------------
G-2-2-2-2-2-2-2-2-3-3-3-3-3-3-3-3--------------------------
C-2-2-2-2-2-2-2-2------------------------------------------
sunken         eyes....                when its          a
E----------------------------------------------------------
A----------------------------------------------------------
F----------------------------------------------------------
C-2-2-2-2-2-2-2-2-0-0-0-0----------------------------------
G-2-2-2-2-2-2-2-2-0-0-0-0----------------------------------
C-2-2-2-2-2-2-2-2-0-0-0-0----------------------------------
ll inside ur      head.....

(PREVERSE 2)
E----------------------------------------------------------
A------------4^--------------------------------------------
F----------------------------------------------------------
C-0-2-0-2-3-----1------------------------------------------
G-0-2-0-2-3-----1------------------------------------------
C-0-2-0-2-3-----1------------------------------------------

Now the bit that goes "could you imagine, what it would be like..." 
blah blah blah, theres no guitar. effected bass, effected drums, 
probably a bit of keybaord but thats it...


thats all the riffs


SONG STRUCTURE
intro/outro x4
preverse1 x4
no guitar for verse
prechorus x4
chorus x2
preverse2 x4
no guitar for verse
prechorus x4
chorus x3
no guitar for special bit
preverse x4
chorus x4
intro/outro x4 

LYRICS
(written by jason brown)
(VERSE)
they watched the sky
with paper eyes
where animals
are doomed
(PRECHORUS)
i feel empty
with your tragedy
so fill me up
till im dead
(CHORUS)
sunken eyes
when its all inside your head
hours go by
will we stay to see the end?
(VERSE)
im feeling sick
so comfort me
im running out
or breathe
(PRECHORUS)
ill sa nothing
saw everything
feels like im
in space
(CHORUS) 
sunken eyes
when its all inside your head
hours go by
will we stay to see the end?

now my heart is sinking low

(SPECIAL BIT)
could you imagine what it would be like to be blind
pre-conception of a different world and mind
do we want our world to be one of a kind?
fuck confromicy and free your state of mind
mind
mind....

(CHORUS)
sunken eyes
when its all inside your head
hours go by
will we stay to see the end?
the end?
the end
the end.....
Comments