Sunk Loto - Sunken Eyes Chords & Tabs

 

Sunken Eyes Chords & Tabs

Sunk Loto Chords & Tabs

Version: 1 Type: Bass Tab 0 ratings
1 star 2 stars 3 stars 4 stars 5 stars
comments

Sunken Eyes Bass Tab

Sunk Loto - Sunken Eyes

Intro/Outro Riff

G---------------------------------------------
D---------------------------------------------
G-5---------2h3p2h3p2--5-----5-----5----------
C---6--0-3---------------3-3---3-3---3--------

Every second time, play

G---------------------------------------------
D---------------------------------------------
G-5---------2h3p2h3p2--5----------------------
C---6--0-3---------------3-3--0-3-3-0-0-0-3---

Pre - Chorus Riff

G---------------------------------------------
D---------------------------------------------
G---------------------------------------------
C--0-2-0-2-3--1-------------------------------

Verse Riff 1

----------------------------------------------
D---------------------------------------------
G---------------------------------------------
C--0-2---0-2---0-2---0-2----------------------

Verse Riff 2
[ Tab from: http://www.guitartabs.cc/tabs/s/sunk_loto/sunken_eyes_btab.html ]
G---------------------------------------------
D---------------------------------------------
G--5h7--5h7-----------------------------------
C------------2-3-0----------------------------


Every 2nd time, play:

G---------------------------------------------
D---------------------------------------------
G--5h7--5h7-----------------------------------
C------------2-3s12---------------------------

Chorus 

G---------------------------------------------
D---------------------------------------------
G-----------------------3--3-3-3--3-3-3--3-3--
C--2--2-2-2--2-2-2--2-2-----------------------

G---------------------------------------------
D---------------------------------------------
G---------------------------------------------
C--2--2-2-2--2-2-2--2-2--0--------------------

Interlude

C--4--2--5--3--2------------------------------
G---------------------------------------------
D---------------------------------------------
G---------------------------------------------

Tab by James Beecroft
beecroft@iinet.net.au

Comments