Sunk Loto - Shiver Chords & Tabs

 

Shiver Chords & Tabs

Sunk Loto Chords & Tabs

Version: 1 Type: Bass Tab 0 ratings
1 star 2 stars 3 stars 4 stars 5 stars
comments

Shiver Bass Tab

Sunk Loto - Shiver

Riff 1:

G------------------------------------------------------------
D------------------------------------------------------------
G------------------------------------------------------------
C--3-------3-------3-----------------------------------------

Riff 2:

G------------------------------------------------------------
D------------------------------------------------------------
G----0-0---0-------------------------------------------------
C--3-----3---3--1--5-----------------------------------------

Riff 3:

G------------------------------------------------------------
D------------------------------------------------------------
G--5-5-5-5-5--5--3-------------------------------------------
C------------------------------------------------------------

Riff 4:

G------------------------------------------------------------
D------------------------------------------------------------
G--5-5-5-5-5--5--3---5-5-5-5-6-6-6-6-------------------------
C------------------------------------------------------------

Riff 5:

G------------------------------------------------------------
D------------------------------------------------------------
G--5-5-6s3---------------------------------------------------
C------------------------------------------------------------

Riff 6:

G------------------------------------------------------------
D------------------------------------------------------------
G------------------------------------------------------------
C--3-3--1----------------------------------------------------

Riff 7:
[ Tab from: http://www.guitartabs.cc/tabs/s/sunk_loto/shiver_btab.html ]
G------------------------------------------------------------
D------------------------------------------------------------
G------------------------------------------------------------
C--0-0--6-6-3----3-3-----------------------------------------

Riff 8:

G------------------------------------------------------------
D------------------------------------------------------------
G------------------------------------------------------------
C--0-0--6-6-3----1-------------------------------------------

Riff 9:

G------------------------------------------------------------
D------------------------------------------------------------
G------------------------------------------------------------
C--0-0--6-6-3--0----6-6--------------------------------------

Riff 10:

G------------------------------------------------------------
D------------------------------------------------------------
G--5-----2---------------------------------------------------
C----0-3---6-3-----------------------------------------------

Song Structure:

Riff 1 x 1
Riff 2 x 6
Riff 3 x 2
Riff 4 x 1
Riff 3 x 2
Riff 4 x 1
Riff 5 x 3
Riff 6 x 1
Riff 5 x 3
Riff 6 x 1
Riff 3 x 3
Riff 6 x 1
Riff 5 x 3
Riff 6 x 1
Riff 7 x 1
Riff 8 x 1
Riff 9 x 1
Riff 8 x 1
Riff 5 x 7
Riff 6 x 1
Riff 5 x 3
Riff 6 x 1
Riff 3 x 3
Riff 6 x 1
Riff 3 x 3
Riff 6 x 1
Riff 7 x 1
Riff 8 x 1
Riff 9 x 1
Riff 8 x 1
Riff 10 x 12
Riff 3 x 2
Riff 4 x 1
Riff 3 x 2
Riff 4 x 1
Riff 7 x 1
Riff 8 x 1
Riff 9 x 1
Riff 8 x 1
Riff 7 x 1
Riff 8 x 1
Riff 9 x 1
Riff 8 x 1

Tab by James Beecroft
beecroft@iinet.net.au

Comments