Sunk Loto - Primitive Chords & Tabs

 

Primitive Chords & Tabs

Sunk Loto Chords & Tabs

Version: 2 Type: Bass Tab 0 ratings
1 star 2 stars 3 stars 4 stars 5 stars
comments

Primitive Bass Tab

Sunk Loto - Primitive

Riff 1

G --------------------------------------------------------------
D --------------------------------------------------------------
G# --------2-------2---------------------------------------------
C#--0-2-4---0-2-4---0-------------------------------------------

Riff 2

G --------------------------------------------------------------
D --------------------------------------------------------------
G# --------------------------------------------------------------
C#--0-0-0--7-7-7s4-4-4---0-0-0--7-7-7s4-4-4s1-------------------

Riff 3
[ Tab from: http://www.guitartabs.cc/tabs/s/sunk_loto/primitive_btab_ver_2.html ]
G --------------------------------------------------------------
D --------------------------------------------------------------
G# --0-0-0-0-0-0-0-0-0-0-2-4-4-4-4-4-4-4-4-4-4-2-----------------
C#--------------------------------------------------------------

G --------------------------------------------------------------
D --------------------------------------------------------------
G# --------------------------------------------------------------
C#--2-2-2-2-2-2-2-2-2-2-2-6-6-6-6-6-6-6-6-6-6-6-----------------

That's all the riffs in the song.
Listen to the song to work out the structure, it's not hard.

Tab by James Beecroft
beecroft@iinet.net.au
Comments