Sunk Loto - Lift Chords & Tabs

 

Lift Chords & Tabs

Sunk Loto Chords & Tabs

Version: 1 Type: Tab 0 ratings
1 star 2 stars 3 stars 4 stars 5 stars
comments

Lift Tab

Sunk Loto - Lift

Tabbed by:Simon Thompson
stomp@servcom.com.au


tuning: old deftones ie. Drop-D then tune down 
                         all strings a half 
                         step(one fret).

intro
D#---------------------------
A#---------------------------
F#---------------------------
C#---------------------------
G#---------------------------
C#-0-2-3-2-3-2-6-5-6-5-6-10--
hit each note 3 times

D#---------------------------
A#---------------------------
F#---------------------------
C#-------------6-5-6-5-6-10--
G#-------------6-5-6-5-6-10--
C#-0-2-3-2-3-2-6-5-6-5-6-10--

"Lift ya head up!"

C#-0-2-3-2-3-2-6-5-6-5-6-10--
G#-0-2-3-2-3-2-6-5-6-5-6-10--
C#-0-2-3-2-3-2-6-5-6-5-6-10--


next bit
C#----------------------------------- 
G#----5-4-2-2/4-xx--4-5-4/2-2-4------ a couple of times
C#----5-4-2-2/4-xx--4-5-4/2-2-4------

C#-----------------------------------
G#---5-4-2-2/4---4h5---x-x-x-x-x-x-x-x
C#---5-4-2-2/4---4h5---x-x-x-x-x-x-x-x

[ Tab from: http://www.guitartabs.cc/tabs/s/sunk_loto/lift_tab.html ]
main riff
D#-----------------------------------
A#-----------------------------------
F#---------------------------------
C#---0---6---3---5-5---0---6---3---5-5-
G#---0---6---3---3-3---0---6---3---3-3--
C#---0---6---3---5-5---0---6---3---5-5---

LOOK IN MY EYES!

D#-----------------------------------
A#-----------------------------------
F#---------------------------------
C#---0---6---3---5-5---0---6---3--5-5--
G#---0---6---3---3-3---0---6---3--3-3---
C#---0---6---3---5-5---0---6---3--5-5----


"PRETEND"?

D#-----------------------------
A#-----------------------------
F#-----------------------------
C#--88888888-00000000-88888888-
G#--88888888-00000000-88888888-
C#--88888888-00000000-88888888-


C#--00000000-88888888-00000000-7777777777777777--
G#--00000000-88888888-00000000-7777777777777777--
C#--00000000-88888888-00000000-7777777777777777--

extra bit
just put this through the 
wackiest delay/wah you got
and improvise around it.

D#----2222-
A#-111-----
F#---------
"another bad lie, another bad feeling..."?

C#--4----
G#--4---- "you have to feel it whatever inside"
C#--4----

back to 'main riff'



Comments