Sunk Loto - Lift Chords & Tabs

 

Lift Chords & Tabs

Sunk Loto Chords & Tabs

Version: 1 Type: Bass Tab 0 ratings
1 star 2 stars 3 stars 4 stars 5 stars
comments

Lift Bass Tab

   
Sunk Loto - Lift

Tuning = B,F#,D,G
Before you dispute the tuning, i am telling you that this tab is
completely 100% correct.  If you follow this tab in dropped D, it
will sound ok, but the song is recorded in dropped B tuning.

Beginning

G -------------------------------------------------------------
D -------------------------------------------------------------
F#--1-0-1-0-1-5------------------------------------------------
B -------------------------------------------------------------

Intro Riff

G -------------------------------------------------------------
D -------------------------------------------------------------
F#----------------------------------1-1-1-0-0-0-1-1-1-0-0-0-1-5
B --2-2-2-4-4-4-5-5-5-4-4-4-5-5-4-4----------------------------

Verse Riff

G -------------------------------------------------------------
D -------------------------------------------------------------
F#-------------------------------------------------------------
B --7-6-4-4-6--6h7p6-4-4-6-------------------------------------

Chorus
[ Tab from: http://www.guitartabs.cc/tabs/s/sunk_loto/lift_btab.html ]
G -------------------------------------------------------------
D -------------------------------------------------------------
F#----1--------------------------------------------------------
B --2---5-0----------------------------------------------------

Chord Progression Bit

G -------------------------------------------------------------
D -------------------------------------------------------------
F#--3-3-3-3-3-3-3-3-3-3-3-3-3-3-3-3----------------------------
B ----------------------------------2--0h2--4-5----------------

The last time, play this:

G -------------------------------------------------------------
D -------------------------------------------------------------
F#--2--2--2--2--2--2--2--2--2--2--2--2--0-0--------------------
B ------------------------------------------5-5----------------

They play the chorus riff at the end, just variating on the rythym 
and leaving out the last note a couple of times.  It's pretty
easy to work out where everything goes, although the bass is pretty 
quiet on this song.

Tab by James Beecroft
beecroft@iinet.net.au
icq# 15978532

Comments