Sunk Loto - Human Ashtray Chords & Tabs

 

Human Ashtray Chords & Tabs

Sunk Loto Chords & Tabs

Version: 2 Type: Bass Tab 0 ratings
1 star 2 stars 3 stars 4 stars 5 stars
comments

Human Ashtray Bass Tab

Sunk Loto - Human Ashtray

Riff 1

G------------------------------------------------------------------
D------------------------------------------------------------------
G--------------------------------------------------3-3-3-3---------
C--0h2-2-2-2p0-0-0-0h2-2-2-2p0-0-0-0h2-2-2-2p0-0-0---------3-3-3-3-

Riff 2
[ Tab from: http://www.guitartabs.cc/tabs/s/sunk_loto/human_ashtray_btab_ver_2.html ]
G------------------------------------------------------------------
D------------------------------------------------------------------
G--------4---------4h5p4-2-------4---------------------------------
C--7-5-7---7-5-7-7---------7-5-7---7-5-4-5-------------------------

Riff 3

G------------------------------------------------------------------
D------------------------------------------------------------------
G-----------------------------------------7-7-7-7-7-7-7-7----------
C--2-2-2-2-2-2s6-6-6-6-6-6-6p0-0-0-0-0-0---------------------------

That's all the riffs.
Listen to the song to work out the order.

Tab by James Beecroft
beecroft@iinet.net.au
Comments