Sunk Loto - Everything Everyway Chords & Tabs

 

Everything Everyway Chords & Tabs

Sunk Loto Chords & Tabs

Version: 1 Type: Tab 0 ratings
1 star 2 stars 3 stars 4 stars 5 stars
comments

Everything Everyway Tab

   
Hey this song is 95% right Its a great song hope its a good tab
Tuning: Drop C (CGCFAD)

INTRO RIFF
D|-------------------------------------------|
A|--55-66-55---55-66-55---55-66-55---55-66-55|
F|-------------------------------------------|  X3
C|-------------------------------------------|
G|33---------33---------00---------00--------|
C|33---------33---------00---------00--------|
  PM         PM         PM         PM
D|-----------------------------------------|
A|--55-66-55---55-66-55----9-10-9-12-9-10-9|
F|-------------------------x-x--x-x--x-x--x|  X1
C|-------------------------7-8--7-10-7-8--7|
G|33---------33---------00-----------------|
C|33---------33---------00-----------------|
  PM         PM         PM
VERSE
D|-----------------------------|
A|-------------9-10-9-12-9-10-9|
F|-------------x-x--x-x--x-x--x|  X4
C|3---------0--7-8--7-10-7-8--7|
G|3---------0------------------|
C|3---------0------------------|
[ Tab from: http://www.guitartabs.cc/tabs/s/sunk_loto/everything_everyway_tab.html ]
PRE-CHORUS
D|-----------------------------------------------|
A|-----------------------------------------------|
F|-----------------------------------------------|
C|---22-33-22----22-33-22----22-33-22----22-33-22| X3
G|33----------33----------00----------00---------|
C|33----------33----------00----------00---------|
  PM          PM          PM          PM
D|-------------------------------------------|
A|---------------------------9-10-9-12-9-10-9|
F|---------------------------x-x--x-x--x-x--x|  X1
C|---22-33-22----22-33-22----7-8--7-10-7-8--7|
G|33----------33----------00-----------------|
C|33----------33----------00-----------------|
  PM          PM          PM
CHORUS
These are just the chords if you want you can just strum the chord once or play any
rhythm, it will sound good either way.
D|------------------------------
A|------------------------------
F|------------------------------
C|5---9---5---9---12---9---5---9
G|3---7---3---7---10---7---3---7
C|3---7---3---7---10---7---3---7

SHORT BRIDGE
D|-------------------------------------------|
A|--55-66-55---55-66-55---55-66-55---55-66-55|
F|-------------------------------------------|  X1
C|-------------------------------------------|
G|33---------33---------00---------00--------|
C|33---------33---------00---------00--------|
  PM         PM         PM         PM
D|-----------------------------------------|
A|--55-66-55---55-66-55----9-10-9-12-9-10-9|
F|-------------------------x-x--x-x--x-x--x|  X1
C|-------------------------7-8--7-10-7-8--7|
G|33---------33---------00-----------------|
C|33---------33---------00-----------------|
  PM         Pm         PM
VERSE (as above)

PRE CHORUS (as above)

CHORUS (as above)

SHORT BRIDGE 
D|---------------------|
A|---------------------|
F|---------------------|
C|9---9---9---9---9---9|
G|7---7---7---7---7---7|
C|7---7---7---7---7---7|

INTERLUDE
(Rhythm isnt 100%, listen to song and figure it out)
D|13-13-13-13-13-14-13-13-13-13-13-14-13-13-13|
A|--------------------------------------------|
F|--------------------------------------------|
C|--------------------------------------------|
G|--------------------------------------------|
C|--------------------------------------------|

CHORUS (as above)

OUTRO
D|-------------------------|
A|--55-66-55---55-66-55----|
F|-------------------------|  X1
C|-------------------------|
G|33---------33---------3-0|
C|33---------33---------3-0|
  PM         PM

Any comments, corrections, email me at laphelan@gmail.com
Comments