Sunk Loto - Defect Chords & Tabs

 

Defect Chords & Tabs

Sunk Loto Chords & Tabs

Version: 1 Type: Tab 0 ratings
1 star 2 stars 3 stars 4 stars 5 stars
comments

Defect Tab

   
Song: Defect
Band: Sunk Loto
Album: Unreleased song
Tuning: D A D G
Tabbed: Daniel T (dt_69er@hotmail.com)
My band used to play this song its hell easy im the bass player but my guitarist t
ought me how to play it so i could tab it on bass
 
Intro:
(Light Distortoin)
E[---------------------------------------------------------]
B[---------------------------------------------------------]
G[---------------------------------------------------------]
D[-0-0-0-0--0-0-0-2-2-2-3-3-3-3--3-3-3-3-2-2-2-0-0-0-0-----]
A[-0-0-0-0--0-0-0-2-2-2-3-3-3-3--3-3-3-3-2-2-2-0-0-0-0-----]
D[-0-0-0-0--0-0-0-2-2-2-3-3-3-3--3-3-3-3-2-2-2-0-0-0-0-----]

E[---------------------------------------------------------]
B[---------------------------------------------------------]
G[---------------------------------------------------------]
D[---0-0-0-2-2-2-3-3-3-3--6-6-6-6-2-2-2-0-0-0-0------------]
A[---0-0-0-2-2-2-3-3-3-3--6-6-6-6-2-2-2-0-0-0-0------------]
D[---0-0-0-2-2-2-3-3-3-3--6-6-6-6-2-2-2-0-0-0-0------------]
                                        Drum intro-----]
Drums and Bass come in
(Heavy Distortoin)
E[---------------------------------------------------------]
B[---------------------------------------------------------]
G[---------------------------------------------------------]
D[-0-0-0-0--0-0-0-2-2-2-3-3-3-3--3-3-3-3-2-2-2-0-0-0-0-----]
A[-0-0-0-0--0-0-0-2-2-2-3-3-3-3--3-3-3-3-2-2-2-0-0-0-0-----]
D[-0-0-0-0--0-0-0-2-2-2-3-3-3-3--3-3-3-3-2-2-2-0-0-0-0-----]
[ Tab from: http://www.guitartabs.cc/tabs/s/sunk_loto/defect_tab.html ]
E[---------------------------------------------------------]
B[---------------------------------------------------------]
G[---------------------------------------------------------]
D[---0-0-0-2-2-2-3-3-3-3--6-6-6-6-2-2-2-0-0-0-0------------]
A[---0-0-0-2-2-2-3-3-3-3--6-6-6-6-2-2-2-0-0-0-0------------]
D[---0-0-0-2-2-2-3-3-3-3--6-6-6-6-2-2-2-0-0-0-0------------]

Verse:
E[-2-2-2-2-2-2--0-0-0-0-0-0-0-|------|-------|------------]
B[-3-3-3-3-3-3--1-1-1-1-1-1-1-|------|-------|------------]
G[-2-2-2-2-2-2--2-2-2-2-2-2-2-|--0/--|--0/---|----0/------]
D[-0-0-0-0-0-0--0-0-0-0-0-0-0-|--/0--|--/0---|----/0------]
A[--------------3-3-3-3-3-3-3-|------|-------|------------]
D[--------------0-0-0-0-0-0-0-|------|-------|------------]

Chorus:
(Heavy Distortoin)
E[---------------------------------------------------------]
B[---------------------------------------------------------]
G[---------------------------------------------------------]
D[-0-0-0-0--0-0-0-2-2-2-3-3-3-3--3-3-3-3-2-2-2-0-0-0-0-----]
A[-0-0-0-0--0-0-0-2-2-2-3-3-3-3--3-3-3-3-2-2-2-0-0-0-0-----]
D[-0-0-0-0--0-0-0-2-2-2-3-3-3-3--3-3-3-3-2-2-2-0-0-0-0-----]

E[---------------------------------------------------------]
B[---------------------------------------------------------]
G[---------------------------------------------------------]
D[---0-0-0-2-2-2-3-3-3-3--6-6-6-6-2-2-2-0-0-0-0----x2------]
A[---0-0-0-2-2-2-3-3-3-3--6-6-6-6-2-2-2-0-0-0-0------------]
D[---0-0-0-2-2-2-3-3-3-3--6-6-6-6-2-2-2-0-0-0-0------------]

Vere 2:
Chorus:
Outro:
E[-0--3-3----------2--3-3---------|------------------------]
B[-1------3-3------3------3-3-----|------------------------]
G[-2----------3-3--2----------3-3-|--0/--------------------]
D[-0---------------0--------------|--/0--------------------]
A[-3------------------------------|------------------------]
D[-0------------------------------|------------------------]
 ( repeat twice then fade out )
I told you it was easy its a very simple song
Suggestions dr_69er@hotmail
                 Thanx
                     Daniel
Comments