Sunk Loto - Bpl Chords & Tabs

 

Bpl Chords & Tabs

Sunk Loto Chords & Tabs

Version: 1 Type: Bass Tab 0 ratings
1 star 2 stars 3 stars 4 stars 5 stars
comments

Bpl Bass Tab

Sunk Loto - BPL

Opening Riff:

G ----------------------------------------
D ----------------------------------------
G -------------6h7------------------------
C#--0-8-0-5-0------0----------------------

Verse Riff 1:

G ----------------------------------------
D ----------------------------------------
G ----------------------------------------
C#-4-0-4-0-4-5--4-0-4-0-7-7---------------

Verse Riff 2:

G ----------------------------------------
D ----------------------------------------
G ----------------------------------------
C#--4--0--0-0--0-0-0--0-0-----------------

Bridge:

G ----------------------------------------
D ----------------------------------------
G ----------------------------------------
C#--3-2--10-9--10-9--7-2------------------

Chorus Part 1:

G ------------------------------------------------------
D ------------------------------------------------------
G ------------------------------------------------------
C#--5h7-7-7--0--5--8---7-7-7-7-7-7-7-7-7-7-7-7-7-7-7-7--

Part 2;

G -------------------------------------------------------
D -------------------------------------------------------
G -------------------------------------------------------
C#--5h7-7-7--0--5--7h8--8p7-7-7-7-7-7-7-7-7-7-7-7-7-7-7-7

Part 3:

G ----------------------------
D ----------------------------
G ----------------------------
C#--5h7-7-7--0--5-------------

Interlude Part 1:
[ Tab from: http://www.guitartabs.cc/tabs/s/sunk_loto/bpl_btab.html ]
G ------------------------------------------------
D ------------------------------------------------
G ------------------------------------------------
C#--2-3-------------------------------------------




Part 2:

G ------------------------------------------------
D ------------------------------------------------
G --5s9-9-----------------------------------------
C#------------------------------------------------

Part 3:

G ------------------------------------------------
D ------------------------------------------------
G ------------------------------------------------
C#--0-2-0-3---------------------------------------

Part 3:

G ------------------------------------------------
D ------------------------------------------------
G --6h7-------------------------------------------
C#------------------------------------------------

Part 4:

G ------------------------------------------------
D ------------------------------------------------
G ------------------------------------------------
C#--0-3--0-3--------------------------------------

Final riff:

G ------------------------------------------------
D ------------------------------------------------
G ------------------------------------------------
C#--4-0----4---0----------------------------------

Song Structure

Opening riff x 1
Verse riff 1 x 2
Verse riff 2 x 8
Bridge x 1
Chorus Part 1 x 1
Chorus Part 2 x 1
Chorus Part 1 x 1
Chorus Part 3 x 1
Opening riff x 1
Verse riff 1 x 2
Verse riff 2 x 8
Bridge x 1
Chorus Part 1 x 1
Chorus Part 2 x 1
Chorus Part 1 x 1
Chorus Part 3 x 1
Opening riff x 1
Interlude Part 1 x 8
Interlude Part 2 x 8
Interlude Part 3 x 7
Interlude Part 4 x 1
Verse riff 2 x 8
Final riff x 1

Tab by James Beecroft
beecroft@iinet.net.au

Comments