Sunk Loto - Blunt Chords & Tabs

 

Blunt Chords & Tabs

Sunk Loto Chords & Tabs

Version: 1 Type: Tab 0 ratings
1 star 2 stars 3 stars 4 stars 5 stars
comments

Blunt Tab

          Author/Artist: SUNK LOTO
          Title: BLUNT
          Album: SA EP
          Transcribed by: OSCAR AND NICK
          Email: WHOREMAN@NOFX.COM
          
          NO 1 HAS TABED THIS SONG SO WE THOURGHT WE GIVE IT A GO. ENJOY PEOPLE
          LUKE TUNES HIS GUITAR TO C# THE REST IS DOWN TUNED HALF A STEP.
          ITS MOSTLY PIC SLIDING AT THE START.
          
          ------------------------------------------------------------------------------
          ------------------------------------------------------------------------------
          ------------------------------------------------------------------------------
          ------------------------------------------------------------------------------
          ------------------------------------------------------------------------------
          -3\2-0-2-0-6-0-6-7------------------------------------------------------------
           INTRO.DISTORTED.LISTEN TO CD FOR TIMING. WORK WITH BASS PIC SLIDES.          
          
          ------------------------------------------------------------------------------
          ------------------------------------------------------------------------------
          ------------------------------------------------------------------------------
          -3\2-0-2-0-6-0-6-7------------------------------------------------------------
          -3\2-0-2-0-6-0-6-7------------------------------------------------------------
          -3\2-0-2-0-6-0-6-7------------------------------------------------------------
           2ND PART OF INTRO IS HEAVIER. DISTORTED. VERSES ARE JUST BASS/SAME INTRO     
          
          ------------------------------------------------------------------------------
          ------------------------------------------------------------------------------
          ------------------------------------------------------------------------------
          -0-0-0-0-1-1-1-5-3-3-3-3-1-1-1------------------------------------------------
          -0-0-0-0-1-1-1-5-3-3-3-3-1-1-1------------------------------------------------
          -0-0-0-0-1-1-1-5-3-3-3-3-1-1-1------------------------------------------------
            CHORUS DISTORTEDN OURTO SAME AS 2ND INTRO WITH PIC SLIDES
[ Tab from: http://www.guitartabs.cc/tabs/s/sunk_loto/blunt_tab.html ]
Comments