Sungha Jung - Wonderful Tonight Chords & Tabs

 

Sungha Jung Chords & Tabs

Version: 1 Type: Tab 1 rating
1 star 2 stars 3 stars 4 stars 5 stars
comments

Wonderful Tonight Tab

   

Title: Wonderful Tonight

Artist: Sungha Jung

Arranged by: Ulli Boegershausen

Tabbed by: Ryan R. Gonzales

Location: Rosario, Batangas - Philippines

Tuning: e B G D A D (Drop D)

Intro:

e ||----------------------------|-----------------------|----------------------------|
B ||----------------------------|-----------------------|----------------------------|
G ||------0---2-h-4-4-p-2-p-0-2-|-----2---2-h-4-2-p-0---|-----0---2-h-4-4-p-2-p-0-2--|
D ||----0-----------------------|---0-----------------2-|---2------------------------|
A ||----------------------------|-----------------------|-3-----0--------------------|
D ||--5-----0-------------------|-4-----0---------------|----------------------------|

e ||--------------0-|---------5-h-7-7-p-5---5-|------------------0---|
B ||------0---1-----|---------------------8---|---------10-br~-8-----|
G ||----------------|-7-----------------------|-----7----------------|
D ||----0---0---0---|-----5-------------------|---7------------------|
A ||----------0-----|---5-----------------7---|----------------------|
D ||--4---5---------|-5-----5-----------------|-0-----0----------10--|

e ||--------------------------|------------------------------|
B ||--------10-s-12-10-s-8-10-|-----3-s-5-3-p-0--------------|
G ||----0---------------------|-----------------2-p-0--------|
D ||--------------------------|---0-------------------2-p-0--|
A ||--7---0-------------------|------------------------------|
D ||--------------------------|-0----------------------------|

Verse:

                           |-----------------|
e ||--------------------------------------------|
B ||--------0-0---0-----3~----------------------|
G ||------0---0-5---2---2~-----------0----------|
D ||----0------------------0-h-2-h-4---4-p-2-0--|
A ||--------------------------------------------|
D ||--5-------5-------4-------------------------|

                                 |---------------------|
e ||------------------------------------------------------|
B ||--------0-0-1-p-0-0-----------------------------------|
G ||------0---0-------------2-2~--------------------------|
D ||----2-----------------0-------------------------------|
A ||--3-------3------------------------0-h-2-h-3-p-2-p-0--|
D ||--------------------4--------4-s-5--------------------|

                           |---------------------|
e ||------------------------------------------------|
B ||--------0-0---0-----3~--------------------------|
G ||------0---0-5---2---2~-----------0--------------|
D ||----0------------------0-h-2-h-4---4-p-2--------|
A ||-----------------------------------------0-h-2--|
D ||--5-------5-------4-----------------------------|

e ||------------------------------------|---------0-0-0--------|
B ||--------0-0-1-p-0-0-----------------|---------0-0-0-3------|
G ||------0---0-------------2-2---------|-----0---0-----2---2~-|
D ||----2-----------------0-------0-----|---2------------------|
A ||--3-------3---------------------0-2-|-3-----3--------------|
D ||--------------------4-------4-------|-----------------0----|

e ||----------------------------|------------------------------|
B ||------------------0-0-0-3-x-|---------------------------0--|
G ||------------------0-0-0-2-x-|-0~------------------0-h-2----|
D ||--------0---0---0-----------|-----2-p-0-2-p-0--------------|
A ||----------0-----------------|-----------------2------------|
D ||--0-h-4-------5-------4-----|-2-2---------------2----------|

e ||--------------|----------------------|
B ||--1-x-----1-0-|-------0--------------|
G ||--0-x-----0---|-2-2-x---2-p-0-----0--|
D ||------2-------|-4-4-x-----------4----|
A ||--3-x---3-----|----------------------|
D ||--------------|-4-------------0------|

Interlude:

e ||----------5-s-7-5-s-3-5-|---------5-s-7-5---0-|---------7-p-5---------|
B ||------------------------|-----------------8---|---------------8-s-10--|
G ||------0-----------------|-----0---------------|-----0-----------------|
D ||----0-------------------|---0-----------------|---2-------------------|
A ||------------------------|-----------------0---|-3-----7-------0-------|
D ||--5-----0---------------|-4-----0-------------|-----------------------|

e ||-------------------------------|
B ||------3-s-5-3-p-0--------------|
G ||------------------2-p-0--------|
D ||----0-------------------2-p-0--|
A ||-------------------------------|
D ||--0----------------------------|

Verse:

                           |-----------------|
e ||--------------------------------------------|
B ||--------0-0---0-----3~----------------------|
G ||------0---0-5---2---2~-----------0----------|
D ||----0------------------0-h-2-h-4---4-p-2-0--|
A ||--------------------------------------------|
D ||--5-------5-------4-------------------------|

                                 |---------------------|
e ||------------------------------------------------------|
B ||--------0-0-1-p-0-0-----------------------------------|
G ||------0---0-------------2-2~--------------------------|
D ||----2-----------------0-------------------------------|
A ||--3-------3------------------------0-h-2-h-3-p-2-p-0--|
D ||--------------------4--------4-s-5--------------------|

                           |---------------------|
e ||------------------------------------------------|
B ||--------0-0---0-----3~--------------------------|
G ||------0---0-5---2---2~-----------0--------------|
D ||----0------------------0-h-2-h-4---4-p-2--------|
A ||-----------------------------------------0-h-2--|
D ||--5-------5-------4-----------------------------|

e ||------------------------------------|---------0-0-0--------|
B ||--------0-0-1-p-0-0-----------------|---------0-0-0-3------|
G ||------0---0-------------2-2---------|-----0---0-----2---2~-|
D ||----2-----------------0-------0-----|---2------------------|
A ||--3-------3---------------------0-2-|-3-----3--------------|
D ||--------------------4-------4-------|-----------------0----|

e ||----------------------------|------------------------------|
B ||------------------0-0-0-3-x-|---------------------------0--|
G ||------------------0-0-0-2-x-|-0~------------------0-h-2----|
D ||--------0---0---0-----------|-----2-p-0-2-p-0--------------|
A ||----------0-----------------|-----------------2------------|
D ||--0-h-4-------5-------4-----|-2-2---------------2----------|

e ||--------------|----------------------|
B ||--1-x-----1-0-|-------0--------------|
G ||--0-x-----0---|-2-2-x---2-p-0-----0--|
D ||------2-------|-4-4-x-----------4----|
A ||--3-x---3-----|----------------------|
D ||--------------|-4-------------0------|

Bridge:
[ Tab from: http://www.guitartabs.cc/tabs/s/sungha_jung/wonderful_tonight_tab.html ]
e ||----------------------------------|-0---0-0----------|
B ||----------------0-6-----0---3-----|-1---1-1----------|
G ||------0-------0-------0-0---0---0-|-0---0-0---0---0--|
D ||----0---0---0-------0---0-----0---|---2--------------|
A ||----------------------------------|-3-------3---0----|
D ||--5-------5-------5-------5-------|------------------|

e ||------------------|---------------|---------------------------0--|
B ||--3---3-3-----1-0-|---0-x-0---3-x-|---------------------0-h-3----|
G ||--2---2-2-----2-0-|---0-x-0---2-x-|-0~---------------------------|
D ||----0-------0-----|---------------|-----2-p-0-2-p-0--------------|
A ||------------------|---------------|-----------------2------------|
D ||--4-------0-------|-5-------4-----|-2-2---------------2----------|

e ||------0-0---------|------------------|------------------|
B ||------1-1---------|--3---3-3-------0-|-1---0------------|
G ||------0-----0-----|--2---2-2-----2---|-0---0---2---0----|
D ||----2-----------0-|----0-------0-----|---0---0---2---0~-|
A ||--3-------3---0---|------------------|-3---2---0--------|
D ||------------------|--4-------0-------|-------------5-0~-|

e ||--------------------------------|
B ||-----------------------------0--|
G ||--2-s-4v-4-p-2-p-0-0-0-0-h-2----|
D ||--------------------------------|
A ||--------------------------------|
D ||-----------------------5--------|

Interlude:

e ||---------------|-----------------------0-|---------7-p-5---------|
B ||----10-br-8-10-|---------10-s-12-10------|---------------8-s-10--|
G ||---------------|-----7--------------12---|-----0-----------------|
D ||--0------------|---7---------------------|---2-------------------|
A ||---------------|-9------------------0----|-3-----7-------0-------|
D ||---------------|-------0-----------------|-----------------------|

e ||------7---8----12-|--------------15-14-15-|-12-------12---------------|
B ||------8---10---13-|-----------------------|-------15----15---12-s-13--|
G ||-------------0----|-------0---------------|---------------------------|
D ||----7---0---------|----12------0----------|----12------------0--------|
A ||------------------|-10------10------------|-12-------------0----------|
D ||--0---------------|-----------------------|-------------0-------------|

e ||--------12-10---------------|-----7------0--------------|
B ||--------------------12-s-10-|-------10-8---3-p-0--------|
G ||----------------------------|--------------------2-p-0--|
D ||-----10----------10---------|---0-----------------------|
A ||----------------------------|---------------------------|
D ||--10----------10------------|-0-------------------------|

Verse:

                           |-----------------|
e ||--------------------------------------------|
B ||--------0-0---0-----3~----------------------|
G ||------0---0-5---2---2~-----------0----------|
D ||----0------------------0-h-2-h-4---4-p-2-0--|
A ||--------------------------------------------|
D ||--5-------5-------4-------------------------|

                                 |---------------------|
e ||------------------------------------------------------|
B ||--------0-0-1-p-0-0-----------------------------------|
G ||------0---0-------------2-2~--------------------------|
D ||----2-----------------0-------------------------------|
A ||--3-------3------------------------0-h-2-h-3-p-2-p-0--|
D ||--------------------4--------4-s-5--------------------|

                           |---------------------|
e ||------------------------------------------------|
B ||--------0-0---0-----3~--------------------------|
G ||------0---0-5---2---2~-----------0--------------|
D ||----0------------------0-h-2-h-4---4-p-2--------|
A ||-----------------------------------------0-h-2--|
D ||--5-------5-------4-----------------------------|

e ||------------------------------------|---------0-0-0--------|
B ||--------0-1-1-p-0-0-----------------|---------0-0-0-3------|
G ||------0---0-------------2-2---------|-----0---0-----2---2~-|
D ||----2-----------------0-------0-----|---2------------------|
A ||--3-------3---------------------0-2-|-3-----3--------------|
D ||--------------------4-------4-------|-----------------0----|

e ||----------------------------|------------------------------|
B ||------------------0-0-0-3-3-|---------------------------0--|
G ||------------------0-0-0-2-2-|-0~------------------0-h-2----|
D ||--------0---0---0-----------|-----2-p-0-2-p-0--------------|
A ||----------0-----------------|-----------------2------------|
D ||--0-h-4-------5-------4-----|-2-2---------------2----------|

e ||--------------|----------------------|
B ||--1-x-----1-0-|-------0--------------|
G ||--0-x-----0---|-2-2-x---2-p-0-----0--|
D ||------2-------|-4-4-x-----------4----|
A ||--3-x---3-----|----------------------|
D ||--------------|-4-------------0------|

e ||------------------|----------------------------|
B ||------------------|-------------------------0--|
G ||------0-------2---|-------------------0-h-2----|
D ||----0---0---0---0-|---2-p-0-2-p-0--------------|
A ||------------------|---------------2------------|
D ||--5-------4-------|-2---------------2----------|

e ||--------------|----------------------|
B ||--1-x-----1-0-|-------0--------------|
G ||--0-x-----0---|-2-2-x---2-p-0-----0--|
D ||------2-------|-4-4-x-----------4----|
A ||--3-x---3-----|----------------------|
D ||--------------|-4-------------0------|

Outro:

e ||---------------------|-----------------------0-|---------7-p-5---------|
B ||----------10-br-8-10-|---------10-s-12-10------|---------------8-s-10--|
G ||------0--------------|-----7--------------12---|-----0-----------------|
D ||----0----------------|---7---------------------|---2-------------------|
A ||---------------------|-9------------------0----|-3-----7-------0-------|
D ||--5-----0------------|-------0-----------------|-----------------------|

e ||------7---8----12-|---------15-14---15-17-|---------15-14---------15-12--|
B ||------8---10---13-|-----------------------|------------------------------|
G ||-------------0----|-------0---------------|------------------------------|
D ||----7---0---------|----12-----------------|------------------------------|
A ||------------------|-10------------0-------|-----12*-----------12*--------|
D ||--0---------------|-----------------------|-12*-----------12*------------|

e ||--------10-------------------|------------------------------|
B ||-----------13-------12-s-10v-|-----3-s-5-3-p-0--------------|
G ||-----------------------------|-----------------2-p-0--------|
D ||-----------------------------|---0-------------------2-p-0--|
A ||-----10----------10----------|------------------------------|
D ||--10----------10-------------|-0----------------------------|

e ||------------------|
B ||--------------0~--|
G ||------0-2----0----|
D ||----0-------0-----|
A ||------------------|
D ||--5-------5-------|


Tablature Legend
----------------

h  - hammer on
s  - slide
v  - vibrato
p  - pull off
x  - mute the last note by tapping
br - bend and then release
~  - let the note ring
*  - harmonic


echo "Hello World!";

Comments