Sundown - Find Them Chords & Tabs

 

Find Them Chords & Tabs

Sundown Chords & Tabs

Version: 1 Type: Tab 0 ratings
1 star 2 stars 3 stars 4 stars 5 stars
comments

Find Them Tab

                              FIND THEM 
 Intro                                                     
e|-------------------------------------------------------------------------|
B|-------------------------------------------------------------------------|
G|-------------------------------------------------------------------------|
D|-----5-----5-----5------7-----7-----7-----3-----3-----3---X2-------------|
A|---3-----3-----3------5-----5-----5-----1-----1-----1--------------------|
D|-3-----3-----3------5-----5-----5-----1-----1-----1----------------------|
   x x x x x x x x x  x x x x x x x x   x x x x x x x x x 
 Verse 1
e|-------------------------------------------------------------------------|
B|-------------------------------------------------------------------------|
G|-------------------------------------------------------------------------|
D|-5-5-5-x-x-x-5-5-5-x-x-x-5-5-5-x-x-x-5-5-5-x-x-x/------------------------|
A|-3-3-3-x-x-x-3-3-3-x-x-x-3-3-3-x-x-x-3-3-3-x-x-x/------------------------|
D|-3-3-3-x-x-x-3-3-3-x-x-x-3-3-3-x-x-x-3-3-3-x-x-x/------------------------|

e|-------------------------------------------------------------------------|
B|-------------------------------------------------------------------------|
G|-------------------------------------------------------------------------|
D|-7-7-7-x-x-x-7-7-7-x-x-x-7-7-7-x-x-x-7-7-7-x-x-x\------------------------|
A|-5-5-5-x-x-x-5-5-5-x-x-x-5-5-5-x-x-x-5-5-5-x-x-x\------------------------|
D|-5-5-5-x-x-x-5-5-5-x-x-x-5-5-5-x-x-x-5-5-5-x-x-x\------------------------|

e|-------------------------------------------------------------------------|
B|-------------------------------------------------------------------------|
G|-------------------------------------------------------------------------|
D|-3-3-3-x-x-x-3-3-3-x-x-x-3-3-3-x-x-x-3-3-3-x-x-x-------------------------|
A|-1-1-1-x-x-x-1-1-1-x-x-x-1-1-1-x-x-x-1-1-1-x-x-x---REPEAT----------------|
D|-1-1-1-x-x-x-1-1-1-x-x-x-1-1-1-x-x-x-1-1-1-x-x-x-------------------------|
[ Tab from: http://www.guitartabs.cc/tabs/s/sundown/find_them_tab.html ]
 Verse 2
e|-------------------------------------------------------------------------|
B|-------------------------------------------------------------------------|
G|-------------------------------------------------------------------------|
D|-0-0-5--0-0-5--0-0-7--0-0-7--0-0-3--0-0-3--------------------------------|
A|-0-0-x--0-0-x--0-0-x--0-0-x--0-0-x--0-0-x-----REPEAT --------------------|
D|-0-0-3--0-0-3--0-0-5--0-0-5--0-0-1--0-0-1--------------------------------|
   x x    x x    x x    x x    x x    x x   

 CHORUS
e|-------------------------------------------------------------------------|
B|-------------------------------------------------------------------------|
G|-5-5-5-5-5-5-5/3-3-3-3-3-3-3/7-7-7-7-7-7-7/10-10-10-10-10-10-10\---------|
D|-x-x-x-x-x-x-x/x-x-x-x-x-x-x/x-x-x-x-x-x-x/-x--x--x--x--x--x--x\---------|
A|-3-3-3-3-3-3-3/1-1-1-1-1-1-1/5-5-5-5-5-5-5/-8--8--8--8--8--8--8\---------|
D|-------------------------------------------------------------------------|

e|-------------------------------------------------------------------------|
B|-------------------------------------------------------------------------|
G|-8-8-8-8-8-8-8-----------------------------------------------------------|
D|-x-x-x-x-x-x-x-----------------------------------------------------------|
A|-6-6-6-6-6-6-6-----------------------------------------------------------|
D|-------------------------------------------------------------------------

 Verse 1
e|-------------------------------------------------------------------------|
B|-------------------------------------------------------------------------|
G|-------------------------------------------------------------------------|
D|-5-5-5-x-x-x-5-5-5-x-x-x-5-5-5-x-x-x-5-5-5-x-x-x/------------------------|
A|-3-3-3-x-x-x-3-3-3-x-x-x-3-3-3-x-x-x-3-3-3-x-x-x/------------------------|
D|-3-3-3-x-x-x-3-3-3-x-x-x-3-3-3-x-x-x-3-3-3-x-x-x/------------------------|

e|-------------------------------------------------------------------------|
B|-------------------------------------------------------------------------|
G|-------------------------------------------------------------------------|
D|-7-7-7-x-x-x-7-7-7-x-x-x-7-7-7-x-x-x-7-7-7-x-x-x\---5~~~~~~~~~~~~~~~~~~~~|
A|-5-5-5-x-x-x-5-5-5-x-x-x-5-5-5-x-x-x-5-5-5-x-x-x\---5~~~~~~~~~~~~~~~~~~~~|
D|-5-5-5-x-x-x-5-5-5-x-x-x-5-5-5-x-x-x-5-5-5-x-x-x\---5~~~~~~~~~~~~~~~~~~~~|
Comments