Sun Eats Hours - That Day Chords & Tabs

 

That Day Chords & Tabs

Sun Eats Hours Chords & Tabs

Version: 2 Type: Tab 0 ratings
1 star 2 stars 3 stars 4 stars 5 stars
comments

That Day Tab

   
THE SUN.EATS.HOURS  :::::THAT DAY:::::

chords
   E   F#  A   D
e-------------------|
B-------------------|
G--------------7----|
D--2---4---7---7----|
A--2---4---7---5----|
E--0---2---5--------|

VERSE

F#              D
I remember that day,
    A                   E
You started to say that this world
F#                     D
Is not a good place to stay
    A                 E
'Cause you have never felt love
F#
Everywhere you have been
D
Everywhere you have gone
A                           E
Every society you tried to fit in
RIT.
F#           D           A
Woooow oooo  Woooow oooo The world is unfair
E
But you had to go on
F#           D           A
Woooow oooo  Woooow oooo You wrecked your life
E
And you won't return

VERSE

RIT.

bridge repeat intro

[ Tab from: http://www.guitartabs.cc/tabs/s/sun_eats_hours/that_day_tab_ver_2.html ]
You can stand it
All your experiences
Were full of events
Of hate and suffering
But I put up with
All our experiences,
Sometimes with suffering,
But with the consciousness
Of what there was good
Of what there was fine
Of who gave us something to live for
For another day.

RIT.

OUTRO

this one during rit & in other else parts


e------------------------------------------------------------------------------------------------------------------|
B------------------------------------------------------------------------------------------------------------------|
G-11--11-13--14-13--11--11-1-14-13--9--9--13-14--11-9--11-11-13-14-13--11-11-13-14-13--9--9--13-14-13-16-14-13-14--|
D-X---X--X---X--X---X---X--X--X--X--X--X--X--X---X--X--X--X--X--X--X---X--X--X--X--X---X--X--X--X--X--X--X--X--X---|
A-9---9--11--12-11--9---9-11-12-11--7--7--11-12--9--7--9--9--11-12-11--9--9--11-12-11--7--7--11-12-11-14-12-11-12--|
E------------------------------------------------------------------------------------------------------------------|
Comments