Summerswasted - You And Only You Chords & Tabs

 

You And Only You Chords & Tabs

Summerswasted Chords & Tabs

Version: 1 Type: Tab 0 ratings
1 star 2 stars 3 stars 4 stars 5 stars
comments

You And Only You Tab

   
-----------------------------------------------------------------------------
			     You and Only You - summerswasted
-----------------------------------------------------------------------------
Tabbed by: crashburnhuhmav
visit summerswasted @ www.summerswasted.tk

Tuning: standardash

intro/verse
e|--------------0-----------------0----|
B|---0-0------0--0-0---0-0------0--0-0-|
G|--0-0-0-0--0-0--0---0-0-0-0--0-0--0--|
D|-------------------------------------|
A|-------0-----------3-----3--5--------|
E|-3--------0--------------------------|

chorus "with you..."
e|-------------------------------------|
B|-------------------------------------|
G|-------------------------------------|
D|----------22222222-55555555-77777777-|
A|-55555555-22222222-33333333-55555555-|
E|-33333333-00000000-00000000-00000000-| played 2x 
 ..you......sun......set.....away.....

intro again
verse
chorus(this time played 4x)

bridge
e|------------0------------------0---|
B|-----0-----0-0------0---------0-0--|
G|---0-----0----0---0---------0----0-|
D|-----------------------------------|
A|----------------3-----3/5-5--------|
E|-3-----0---------------------------| played 2x 
[ Tab from: http://www.guitartabs.cc/tabs/s/summerswasted/you_and_only_you_tab.html ]
ending(distortion) ring out notes
e|------------------------------|
B|------------------------------|
G|------------------------------|
D|----------2--------5--------7-|
A|-5--------2--------3--------5-|
E|-3--------0--------0--------0-|

verse 1:
baby sometimes, we feel like nothing can ever tear us apart
when you hold my hand and i hold your heart
i feel the passion flow through me again. 
as time stands still, we feel it will never end
as long as the stars still shine at night 
for you and i 
for you and i 

chorus:
with you i can feel like the sun
will never set while you're away
with you i can rest assured
that no one else can make me feel the way you do.

verse 2:
baby theres times, we feel like the world just simply gets in the way
of you and i
and the dreams we long to release from the towers way out of reach.
as time stands still we'll set free the passion that fuels our undying hearts
for you hold the key to my heart
as i do, yours.

chorus 2:
'cause with you i can feel like the sun
will never set while you're away
with you i can rest assured
that no one else can make me feel the way you do
time stands still
we feel it will never end as long as the stars still shine at night for you and i
for you, and i 

ending:
'cause its YOU and only YOU
YOU know its true
i promise YOU. 



| /  slide up
| \  slide down
| h  hammer-on
| p  pull-off
| ~  vibrato
| +  harmonic
| x  Mute note
=============================================================================
Comments