Summerswasted - The End Before The Start Chords & Tabs

 

The End Before The Start Chords & Tabs

Summerswasted Chords & Tabs

Version: 1 Type: Tab 0 ratings
1 star 2 stars 3 stars 4 stars 5 stars
comments

The End Before The Start Tab

   
-------------------------------------------------------------------------------
			     The End Before the Start - summerswasted
-------------------------------------------------------------------------------
Tabbed by: romulo (it was a request)
Email: visit us at www.geocities.com/summerswastedrocks

Tuning: standard

Intro/verse
e|---------------------------3-----------------------------------3---------|
B|-----------------------------3---3-------3---3-------------3-----3---3---|
G|-----0---0-------------0-------0-------0---0---0---0-----0---0-----0-----|
D|---0---0---0---0-----0---0-----------2-----------2-----0-----------------|
A|-2-----------2-----3-----------------------------------------------------|
E|-------------------------------------------------------------------------|

chorus, usually played 4 times
e|-------------------------------------------------------------------|
B|-------------------------------------------------------------------|
G|-4-4-4-4-4-4-4-4-5-5-5-5-5-5-5-5-----------------7-7-7-7-7-7-7-7---|
D|-4-4-4-4-4-4-4-4-5-5-5-5-5-5-5-5-5-5-5-5-5-5-5-5-7-7-7-7-7-7-7-7---|
A|-2-2-2-2-2-2-2-2-3-3-3-3-3-3-3-3-5-5-5-5-5-5-5-5-5-5-5-5-5-5-5-5---|
E|---------------------------------3-3-3-3-3-3-3-3-------------------|

play intro/verse till next chorus
chorus riff
[ Tab from: http://www.guitartabs.cc/tabs/s/summerswasted/the_end_before_the_start_tab.html ]
bridge: starts off with bass solo, guitar kicks in with this
e|--------------------0---------------------0------|
B|----0-0-----------0--0-0-----0-0--------0--0-0---|
G|---0-0-0-0---------0--0-----0-0-0-0----0-0--0----|
D|--------0-----------------2------2---0-----------|
A|-2-------------3-3-------------------------------|
E|-------------------------------------------------|

play chorus riff

end with this, play twice  ..means palm muted
e|------------------------------------------------------------------|
B|------------------------------------------------------------------|
G|-4--4-4-4-4-4-4--5--5-5-5-5-5-5------------------7--7-7-7-7-7-7---|
D|-4--4-4-4-4-4-4--5--5-5-5-5-5-5--5--5-5-5-5-5-5--7--7-7-7-7-7-7---|
A|-2--2-2-2-2-2-2--3--3-3-3-3-3-3--5--5-5-5-5-5-5--5--5-5-5-5-5-5---|
E|---------------------------------3--3-3-3-3-3-3-------------------|
      . .	      . .             . .             . .		

verse one:	ive lived another day (pushing myself away)
		i dont know what just happened (thoughts have gone astray)
		peering out and through the corner (of youre deep dark mind)
		i lie away from understanding (spinning around we cant unwind)

chorus:		im crawling underneath the breathless night
		waiting to see the rays of light
		devising strategies and useless theories
		just to win your heart

verse two:	but im still falling into you (showing hatred against myself)
		love's a stranger without a clue (im lost without your help)
		im dead to your eyes (fallen beneath your lies)
		the heartbreakes of our lives (leaves us with no surprise)

chorus

bridge:		emotions to be of no use
		it was the end before the start 

chorus

| /  slide up
| \  slide down
| h  hammer-on
| p  pull-off
| ~  vibrato
| +  harmonic
| x  Mute note
===============================================================================
Comments