Summerswasted - Fear Of Yesterday Chords & Tabs

 

Fear Of Yesterday Chords & Tabs

Summerswasted Chords & Tabs

Version: 1 Type: Tab 0 ratings
1 star 2 stars 3 stars 4 stars 5 stars
comments

Fear Of Yesterday Tab

   
-------------------------------------------------------------------------------
			     Fear of Yesterday - summerswasted
-------------------------------------------------------------------------------
Tabbed by: crashburnhuhmav
visit the official //summerswasted. website @ www.geocities.com/summerswastedrocks

Tuning: standard

Intro riff: Play 4 times in the beginning, also played palm muted in the
PRECHORUS and PREVERSE. 
e|-----------------------------------------------------------------------|
B|-----------------------------------------------------------------------|
G|---------0-----------------0-------------------------------------------|
D|-----3-----3---3-------2-------2-----------0-----------------0---------|
A|-2-2---2-----2-----3-3---3---3---------2-----2---2-------0-----0---0---|
E|-----------------------------------3-3---3-----3-----2-2---2-----2-----|


Basic riff/Chorus riff, 4 times
e|-------------------------------------------------------------------|
B|-------------------------------------------------------------------|
G|-4-4-4-4-4-4-4-4-5-5-5-5-5-5-5-5-----------------------------------|
D|-4-4-4-4-4-4-4-4-5-5-5-5-5-5-5-5-5-5-5-5-5-5-5-5-4-4-4-4-4-4-4-4---|
A|-2-2-2-2-2-2-2-2-3-3-3-3-3-3-3-3-5-5-5-5-5-5-5-5-4-4-4-4-4-4-4-4---|
E|---------------------------------3-3-3-3-3-3-3-3-2-2-2-2-2-2-2-2---|


Verse riff
e|------------------------------------------------------------|
B|------------------------------------------------------------|
G|------------------------------------------------------------|
D|------------------------------------------------------------|
A|-2---------------3------------------------------------------|
E|---------------------------------3---------------2-2h3p2-0--|

Prechorus riff: play palm muted, same as the intro riff, 4 times. 

Play chorus riff again
preverse 
Verse 
prechorus 
chorus 

Bass solo (if interested)
e|----------------------------------------------------------------|
B|----------------------------------------------------------------|
G|----------------------------------------------------------------|
D|----------------------------------------------------------------|
A|------2-2-2-2---0-2-0/3-3-3---5-3-------------------------------|
E|------------------------------------3-3-3--5-3--2-2---2-2h3p2---|
[ Tab from: http://www.guitartabs.cc/tabs/s/summerswasted/fear_of_yesterday_tab.html ]
guitar kicks in...dots mean palm muted. Play Twice.
e|-----------------------------------------------------------------|
B|-----------------------------------------------------------------|
G|-----------------------------------------------------------------|
D|------2-2------------2-2-----------------------------------------|
A|------2-2------------3-3------------2-2---------0-0--------------|
E|-12\2-------------------------------3-3---------2-2---2-2h3p2-0--|
        . .	       . .            . .         . .   
prechorus riff again, just twice this time.
chorus riff on screaming part
chorus riff
basic ring

end riff: similar to intro riff, but a little different
e|---------------------------------------------------------------------------|
B|----------------------------0-----------------------------------0----------|
G|----------0-------------------0---0-------------------------------0---0----|
D|------3-----3---3-------2-------2-------------3-------------0-------0------|
A|--2-2---2-----2-----3-3---3---------------2-----2---2-----0---0------------|
E|--------------------------------------3-3---3-----3-----2------------------|



		Let go

verse one: 	never saw you coming through
		all i need is to be with you
		falling in love all over again
		probably wont hurt and then

Prechorus: 	uselessness of this charade 
		watching our undying love fade
		ive tried so long to get us out
		around the shadows of a doubt

Chorus: 	let go, and end this misery
		i know, that wasnt meant to be
		dont show, the sadness in your eyes
		that leads to my demise
		let go, just say your good byes
		and let me walk away 
		from the fears of yesterday
		the fears of yesterday

verse two: 	again i face your truth
		id rather take another route
		forgotten what we used to be
		you used to mean everything to me

prechorus
chorus

bridge:		let go, never meant to be like this
		let go, never meant to be this way
		let go, never meant to be like this
		let go, never meant to be this way
		let go, never meant to be like this
		let go, never meant to be this way.
		never meant to be like this.

chorus






| /  slide up
| \  slide down
| h  hammer-on
| p  pull-off
| ~  vibrato
| +  harmonic
| x  Mute note
===============================================================================
Comments