Summerswasted - Chosen Chords & Tabs

 

Chosen Chords & Tabs

Summerswasted Chords & Tabs

Version: 1 Type: Tab 0 ratings
1 star 2 stars 3 stars 4 stars 5 stars
comments

Chosen Tab

-------------------------------------------------------------------------------
			     Chosen - summerswasted
-------------------------------------------------------------------------------
Tabbed by: cacokookoocaca 
www.geocities.com/summerswastedrocks - official site
San Diego, Ca United States of America 

Tuning: standard 

sweet intro
e|-------------------------------------------------------------------|
B|-------------------------0--------------------------------0--------|
G|--------0------------------0---0----------0-----------0-----0---0--|
D|-----5----5---5------5-------5--------7-----7---7-------7-----7----|
A|-3-3---3----3----3-3---3----------5-5---5-----5---5-5--------------|
E|-------------------------------------------------------------------|
intro cont...
e|-------------------------------------------------------------------|
B|----------------------------------------------------------0--------|
G|---------0-------------0------------------0-----0-----0-----0---0--|
D|-----0-----0---0---------0---0--------0-----0-----0-----0-----0----|
A|---7---7-----7----7--7-----7--------3---3-----3-----3--------------|
E|-5---------------5-5--------------1--------------------------------|

[ Tab from: http://www.guitartabs.cc/tabs/s/summerswasted/chosen_tab.html ]
Basic riff
e|-0-0---------0-0-0-0---------0-0-0-0---------0-0-0-0---------0-0---|
B|-0-0-0-0-0-0-0-0-0-0-0-0-0-0-0-0-0-0-0-0-0-0-0-0-0-0-0-0-0-0-0-0---|
G|-0-0-0-0-0-0-0-0-0-0-0-0-0-0-0-0-0-0-0-0-0-0-0-0-0-0-0-0-0-0-0-0---|
D|-5-5-5-5-5-5-5-5-7-7-7-7-7-7-7-7-0-0-0-0-0-0-0-0-0-0-0-0-0-0-0-0---|
A|-3-3-3-3-3-3-3-3-5-5-5-5-5-5-5-5-7-7-7-7-7-7-7-7-3-3-3-3-3-3-3-3---|
E|-0-0-0-0-0-0-0-0-0-0-0-0-0-0-0-0-5-5-5-5-5-5-5-5-1-1-1-1-1-1-1-1---|


verse one:	we sat outside in the morning light
		and stared at the future together
		every sense is heightened
		emotions magnified
		reality is shattered
		flying into the heavens completely alive

chorus:		of all the girls ive met
		youre the one i wont forget
		and i believe that GOD above
		created you for me to love
		he chose you from all the rest
		cause he knew id love you best
		and i love you not only for what you are
		but for what i am when im with you

verse two: 	wrote your name in the sand
		but the waves washed it away
		i wrote your name in the sky
		but the wind blew it away
		so i wrote your name on my heart
		and forever it shall stay

chorus
bridge:		the lust of her lips
		the love in her eyes
		smooth of her skin
		the silk in her hair
		its the way she walks 
		its the way she talks
		its the way she loves me that makes me love her

chorus 
end:		the chosen one who makes me become what i am


===============================================================================
Comments