Summerswasted - Broken Heart Approach Chords & Tabs

 

Broken Heart Approach Chords & Tabs

Summerswasted Chords & Tabs

Version: 1 Type: Tab 0 ratings
1 star 2 stars 3 stars 4 stars 5 stars
comments

Broken Heart Approach Tab

   
-----------------------------------------------------------------------------
			     The Broken Heart Approach - summerswasted
-----------------------------------------------------------------------------
Tabbed by: your mom's cousin's niece's friend's daughter from division st, who doesnt
even know who YOU are. 
visit summerswasted @ www.purevolume.com/summerswasted

Tuning: standard

intro
e|----------------|
B|----------------|
G|---------4------|
D|-6---2---4---4--|
A|-6---2---2---4--|
E|-4---0-------2--|

chorus riff
e|---------------------|
B|---------------------|
G|-----------4444------|
D|-6666-2222-4444-4444-|
A|-6666-2222-2222-4444-|
E|-4444-0000------2222-|

verse - same as chorus riff, just palm muted the whole way, played 4x)
chorus again(played 4x)
verse again
chorus(4x)

bridge "nothing beautiful can ever last..."
e|---------------------|
B|---------------------|
G|---4----4----4----4--|
D|--4-4--4-4--4-4--4-4-|
A|-----------2---------|
E|-4----0---------2----| play 2x
[ Tab from: http://www.guitartabs.cc/tabs/s/summerswasted/broken_heart_approach_tab.html ]
bridge cont. "nothing beautiful can ever, can ever, last."
e|---------------------|
B|---4----4----4----4--|
G|--4-4--4-4--4-4--4-4-|
D|---------------------|
A|-----------2---------|
E|-4----0---------2----|play 2 times 

bridge cont. - play whole bridge distorted 
end with chorus riff 


verse 1:
its time to say goodbye running the path to your demise
you've lied to me through innocent eyes
and still i hold you in my arms.

chorus: ill hold on to the memories
and find that letting go wont be so easy
ill hold on to the dreams we've shared
and find this broken heart approach to kill me end the end.

verse 2:
my world has fallen apart
ill make sure yours ends up just as worse
these scars theyll never heal, i hope youre ready for the worst. 

bridge:
nothing beautiful can ever last
nothing beautiful can ever, can ever, last. 


| /  slide up
| \  slide down
| h  hammer-on
| p  pull-off
| ~  vibrato
| +  harmonic
| x  Mute note
=============================================================================
Comments