Summers End - Haunting Hallowed Graves Chords & Tabs

 

Haunting Hallowed Graves Chords & Tabs

Summers End Chords & Tabs

Version: 2 Type: Tab

Haunting Hallowed Graves Tab

   
 Haunting Hallowed Graves - Guitar TAB


Haunting Hallowed Graves

transcribed by Ben Hallows (himself)

keep in mind that most if not all the notes played on the drop D string are palm muted!!!!

played in drop D tuning:
e:
b:
g:
d:
a:
d:

h=hammer on
p=pull off
s=slide
*=pinch harmonic

INTRO: play this exactly three times
e|---------------------------------------------------------------------------------|
b|---------------------------------------------------------------------------------|
g|---------------------------------------------------------------------------------|
d|---------------------------------------------------------------------------------|
a|-------5---7---8---10----8----7----8-8--------7----8----10----8----7----8---7-7--|
d|--0-0---0---0---0-----0----0----0--------8-8----8----8------8----8----8---8------|

e|--------------------------------------------------------------------------------------|
b|--------------------------------------------------------------------------------------|
g|--------------------------------------------------------------------------------------|
d|------------------5-------------------------------------------------------------------|
a|-------7----8---------8----7----8----7-7---------7----8----7-7---------7----8----7-7--|
d|--5-5----5----5---5----5----5----5---------7-7----7----7---------8-8----8----8--------|

[ Tab from: http://www.guitartabs.cc/tabs/s/summers_end/haunting_hallowed_graves_tab_ver_2.html ]
RIFF PRIOR TO VERSE: play this once
e |---------------------------------------------------------------|
b |---------------------------------------------------------------|
g |---------------------------------------------------------------|
d |--------------------------------7------------------------------|
a |--0-0-0----0-0-0-----7h8h10---10p8-7h8p7--4*-------------------|
d |--0-0-0----0-0-0-----------------------------------------------|

VERSE: play this twice
e|-----------------------------------------------------------------------------------|
b|-----------------------------------------------------------------------------------|
g|-----------------------------------------------------------------------------------|
d|--------------------------------------------------------------------------7--------|
a|------8---7--------------8---7---5-------8----7---------------7h8h10---10p8-7h8p7--|
d|--0-0---0---0-0-0-000---0---0---0--0----0----0-0-0-000-----------------------------|

e|---------------------------------------------------------------------------------|
b|---------------------------------------------------------------------------------|
g|---------------------------------------------------------------------------------|
d|---------------------------------------------------------------------------------|
a|-------8---7--------------8---7---5-------8----7--------------10----8----7-------|
d|---0-0---0---0-0-0-000---0---0---0--0----0----0-0-0-000------0----0--------------|


RIFF AFTER VERSE:
 e|---------------------------------------------------------------------------|
b|----------------------------------------------------------------------------|
g|----------------------------------------------------------------------------|
d|---10--10----12---12-----0---------------------5h7p5s3--5--3s2--3--2h3p2p0--|
a|----8---8-----10---10-----0-------------------------------------------------|
d|----8---8-----10---10-----0--0-0-0-0-0-0------------------------------------|

heres to all the kids asking for tabs!!!

more of this is sure to come in the near future, so get started!!!!