Summercamp - Nowhere Near Chords & Tabs

 

Nowhere Near Chords & Tabs

Summercamp Chords & Tabs

Version: 1 Type: Tab 0 ratings
1 star 2 stars 3 stars 4 stars 5 stars
comments

Nowhere Near Tab

   
----------------------------------------------------------------------------
			     NOWHERE NEAR - Summercamp
----------------------------------------------------------------------------

Tabbed by: Jennifer 
Email: sonic_speed_@hotmail.com


Standard Tuning


This is my first tab. I've looked everywhere to find this tab but I could never find it. 
So I decided to tab it myself.

Verse 1:
E-------------------------------------------------|
B-------------------------------------------------|
G-------------7-7-7-7-7-7-------------5-5-5-5-5-5-|
D-5-5-5-5-5-5-x-x-x-x-x-x-5-5-5-5-5-5-x-x-x-x-x-x-|
A-5-5-5-5-5-5-5-5-5-5-5-5-5-5-5-5-5-5-3-3-3-3-3-3-|
E-3-3-3-3-3-3-------------3-3-3-3-3-3-------------|

E-------------------------------------------------|
B-------------------------------------------------|
G-------------7-7-7-7-7-7-5-5-5-5-5-5-7-7-7-7-7-7-|
D-5-5-5-5-5-5-x-x-x-x-x-x-x-x-x-x-x-x-x-x-x-x-x-x-|
A-5-5-5-5-5-5-5-5-5-5-5-5-3-3-3-3-3-3-5-5-5-5-5-5-|
E-3-3-3-3-3-3-------------------------------------|

E-------------------------------------------------|
B-------------------------------------------------|
G-------------7-7-7-7-7-7-------------5-5-5-5-5-5-|
D-5-5-5-5-5-5-x-x-x-x-x-x-5-5-5-5-5-5-x-x-x-x-x-x-|
A-5-5-5-5-5-5-5-5-5-5-5-5-5-5-5-5-5-5-3-3-3-3-3-3-|
E-3-3-3-3-3-3-------------3-3-3-3-3-3-------------|

E-------------------------------------------------|
B-------------------------------------------------|
G-------------7-7-7-7-7-7-5-5-5-5-5-5-7-7-7-7-7-7-|
D-5-5-5-5-5-5-x-x-x-x-x-x-x-x-x-x-x-x-x-x-x-x-x-x-|
A-5-5-5-5-5-5-5-5-5-5-5-5-3-3-3-3-3-3-5-5-5-5-5-5-|
E-3-3-3-3-3-3-------------------------------------|


Chorus:
E---------------------------------------------------------|
B---------------------------------------------------------|
G---------7-7-7-7-9-9-9-9-7-7-7-7------7-------7----------|
D-5-5-5-5-x-x-x-x-x-x-x-x-x-x-x-x------x-------x--7-5-5---|
A-5-5-5-5-5-5-5-5-7-7-7-7-5-5-5-5-3--5-5-----5-5--7-5-5---|
E-3-3-3-3---------------------------------5-------5-3-3---|

Pre-Verse/Fill:
E-----|
B-----|
G-7-7-|
D-x-x-|
A-5-5-|
E-----|


Verse 2:
E-------------------------------------------------|
B-------------------------------------------------|
G-------------7-7-7-7-7-7-------------5-5-5-5-5-5-|
D-5-5-5-5-5-5-x-x-x-x-x-x-5-5-5-5-5-5-x-x-x-x-x-x-|
A-5-5-5-5-5-5-5-5-5-5-5-5-5-5-5-5-5-5-3-3-3-3-3-3-|
E-3-3-3-3-3-3-------------3-3-3-3-3-3-------------|

E-------------------------------------------------|
B-------------------------------------------------|
G-------------7-7-7-7-7-7-5-5-5-5-5-5-7-7-7-7-7-7-|
D-5-5-5-5-5-5-x-x-x-x-x-x-x-x-x-x-x-x-x-x-x-x-x-x-|
A-5-5-5-5-5-5-5-5-5-5-5-5-3-3-3-3-3-3-5-5-5-5-5-5-|
E-3-3-3-3-3-3-------------------------------------|

E-------------------------------------------------|
B-------------------------------------------------|
G-------------7-7-7-7-7-7-------------5-5-5-5-5-5-|
D-5-5-5-5-5-5-x-x-x-x-x-x-5-5-5-5-5-5-x-x-x-x-x-x-|
A-5-5-5-5-5-5-5-5-5-5-5-5-5-5-5-5-5-5-3-3-3-3-3-3-|
E-3-3-3-3-3-3-------------3-3-3-3-3-3-------------|
[ Tab from: http://www.guitartabs.cc/tabs/s/summercamp/nowhere_near_tab.html ]
E-------------------------------------------------|
B-------------------------------------------------|
G-------------7-7-7-7-7-7-5-5-5-5-5-5-7-7-7-7-7-7-|
D-5-5-5-5-5-5-x-x-x-x-x-x-x-x-x-x-x-x-x-x-x-x-x-x-|
A-5-5-5-5-5-5-5-5-5-5-5-5-3-3-3-3-3-3-5-5-5-5-5-5-|
E-3-3-3-3-3-3-------------------------------------|


Chorus:
E---------------------------------------------------------|
B---------------------------------------------------------|
G---------7-7-7-7-9-9-9-9-7-7-7-7------7-------7----------|
D-5-5-5-5-x-x-x-x-x-x-x-x-x-x-x-x------x-------x--7-5-5---|
A-5-5-5-5-5-5-5-5-7-7-7-7-5-5-5-5-3--5-5-----5-5--7-5-5---|
E-3-3-3-3---------------------------------5-------5-3-3---|


Fill:
E-------------------------|
B-------------------------|
G------7-------7----------|
D------x-------x--7-5-5---|
A-3--5-5-----5-5--7-5-5---|
E---------5-------5-3-3---|

Bridge:
There's no guitar at the beginning. Only what seems to be bass guitar and the rest.
Well, okay there's a few little notes in there but they don't really seem necessary.
Then you come in the second part.

E-------------------------------------------------|
B-------------------------------------------------|
G-------------7-7-7-7-7-7-------------------------|
D-7-7-7-7-7-7-x-x-x-x-x-x-5-5-5-5-5-5-4-4-4-4-4-4-|
A-7-7-7-7-7-7-5-5-5-5-5-5-5-5-5-5-5-5-4-4-4-4-4-4-|
E-5-5-5-5-5-5-------------3-3-3-3-3-3-2-2-2-2-2-2-|

E----------------------------------------|
B----------------------------------------|
G-9-9-9-9-9-9-5-5-5-5-5-5-7-7-7-7-7-7--7-|
D-x-x-x-x-x-x-x-x-x-x-x-x-x-x-x-x-x-x--x-|
A-7-7-7-7-7-7-3-3-3-3-3-3-5-5-5-5-5-5--5-|
E----------------------------------------|


Verse 3:
E-------------------------------------------------|
B-------------------------------------------------|
G-------------7-7-7-7-7-7-------------5-5-5-5-5-5-|
D-5-5-5-5-5-5-x-x-x-x-x-x-5-5-5-5-5-5-x-x-x-x-x-x-|
A-5-5-5-5-5-5-5-5-5-5-5-5-5-5-5-5-5-5-3-3-3-3-3-3-|
E-3-3-3-3-3-3-------------3-3-3-3-3-3-------------|

E-------------------------------------------------|
B-------------------------------------------------|
G-------------7-7-7-7-7-7-5-5-5-5-5-5-7-7-7-7-7-7-|
D-5-5-5-5-5-5-x-x-x-x-x-x-x-x-x-x-x-x-x-x-x-x-x-x-|
A-5-5-5-5-5-5-5-5-5-5-5-5-3-3-3-3-3-3-5-5-5-5-5-5-|
E-3-3-3-3-3-3-------------------------------------|

Chorus:
E---------------------------------------------------------|
B---------------------------------------------------------|
G---------7-7-7-7-9-9-9-9-7-7-7-7------7-------7----------|
D-5-5-5-5-x-x-x-x-x-x-x-x-x-x-x-x------x-------x--7-3-3---|
A-5-5-5-5-5-5-5-5-7-7-7-7-5-5-5-5-3--5-5-----5-5--7-3-3---|
E-3-3-3-3---------------------------------5-------5-5-5---|


Fill:
E-------------------------|
B-------------------------|
G------7-------7----------|
D------x-------x--7-5-5---|
A-3--5-5-----5-5--7-5-5---|
E---------5-------5-3-3---|

Fill:
E-------------------------|
B-------------------------|
G------7-------7----------|
D------x-------x--7-5-5---|
A-3--5-5-----5-5--7-5-5---|
E---------5-------5-3-3---|

Ending:
E------------|
B------------|
G------------|
D---7-5-5~---|
A---7-5-5~---|
E---5-3-3~---|


Note:

| ~  vibrato
| x  Mute note
============================================================================
Comments