Sum 41 - What Were All About Chords & Tabs

 

What Were All About Chords & Tabs

Sum 41 Chords & Tabs

Version: 3 Type: Tab 0 ratings
1 star 2 stars 3 stars 4 stars 5 stars
comments

What Were All About Tab

By:Sum 41
Title:It's What We're All About
Spiderman Soundtrack
Tabbed by:Fernando Biebrich
Tuning:Dropped D
E-Mail: fbiebrich@hotmail.com


2 Guitars in the song.

|---------|
|-14------|
|-11------|  Play that and fade in with volume knob.
|---------|
|---------|
|---------|

Intro:x6
(Guitar 1)
|----------------------------|
|---------------14-----------|
|11----11-13-14----14-13-----|
|---14-----------------------|
|----------------------------|
|----------------------------|

(Guitar 2)After 2nd time Guitar 1 plays.
|--------------------------|
|---------12-13-12-13-12---|
|14-13-14------------------| <---play this 4 times
|--------------------------|
|--------------------------|
|--------------------------|

finish the intro with:
|-12--11--10--9----|
|---12--11--10--9--|
|------------------|
|------------------|
|------------------|
|------------------|

Verse:(this is played by a bass but you can play it in guitar)
Guitar 1
|------------------|
|------------------|
|------------------|
|------------------|
|-----0--0-2-------|
|4--4--------------|

in different parts of the verse Guitar 2 plays:
|---------------------| 
|---------------------|
|---------------------|
|---------------------|
|2-0-2-3-2-0-2-3-2-0--|
|---------------------|


|------------|
|------------|
|--11p9-9p8--|
|------------|
|------------|
|------------|

|------------|
|------------|
|-11-9p8-----|
|--------9---|
|------------|
|------------|

|---------------|
|---------------|
|-11--11-9--9-8-|
|---------------|
|---------------|
|---------------|

Then the verse changes:
(Guitar 1)
|---------| 
|---------|
|---------|
|4--7h9---|
|4--7h9---|
|4--7h9---|

Chorus:
|---------| 
|---------|
|---------|
|4-7-9-10-|
|4-7-9-10-|
|4-7-9-10-|

Verse 2:
(Guitar 1)
|---------| 
|---------|
|---------|
|4--7h9---|
|4--7h9---|
|4--7h9---|
[ Tab from: http://www.guitartabs.cc/tabs/s/sum_41/what_were_all_about_tab_ver_3.html ]
(Guitar 2)
as in verse 1 play in different parts:
|---------------------| 
|---------------------|
|---------------------|
|---------------------|
|2-0-2-3-2-0-2-3-2-0--|
|---------------------|


|------------|
|------------|
|--11p9-9p8--|
|------------|
|------------|
|------------|

|------------|
|------------|
|-11-9p8-----|
|--------9---|
|------------|
|------------|

|---------------|
|---------------|
|-11--11-9--9-8-|
|---------------|
|---------------|
|---------------|

Chorus:
|---------| 
|---------|
|---------|
|4-7-9-10-|
|4-7-9-10-|
|4-7-9-10-|

Then Kerry King's solo:

bar/////////
|-----------------------------------------24b--24b~~~~--|
|-------------------------------------------------------|
|-/14-14-14~~~~----0----(0)-----(0)h5NH-----------------|
|-------------------------------------------------------|
|-------------------------------------------------------|
|-------------------------------------------------------|

   bar////////  ///////  /////////
|------------------------22---------------------------------------------|
|------0--------------22--------------------------------------9---------|
|---0---------------------------------0--(0)-(0)h5NH------13-----12/23-|
|-----------------------------------------------------------------------|
|-----------------------------------------------------------------------|
|-----------------------------------------------------------------------|


|-22--22bf--22b~~~--21-22-24-22-21--20-21-23-21-20--19-20-22-20-19-|
|------------------------------------------------------------------|
|------------------------------------------------------------------|
|------------------------------------------------------------------|
|------------------------------------------------------------------|
|------------------------------------------------------------------|

            repeat 2 times
|-18-19-21-19-18----------|
|----------------21-19-18-|
|-------------------------|
|-------------------------|
|-------------------------|
|-------------------------|

Guitars 1 and 2 play the second part of the intro.

And the rest is the chorus.

This is a great song.

My E-Mail: fbiebrich@hotmail.com
Comments