Sum 41 - What Were All About Chords & Tabs

 

What Were All About Chords & Tabs

Sum 41 Chords & Tabs

Version: 1 Type: Bass Tab 0 ratings
1 star 2 stars 3 stars 4 stars 5 stars
comments

What Were All About Bass Tab

   
sounds 100% right to me so if you have any corrections email me at
firefly183@hotmail.com

Riff 1
G----
D----
A----
E-2*-

Riff 2
G-----------------------
D-----------------------
A-------------------2-2-
E-2-2--2--5-5--5--------

Riff 3
G---------
D---------
A---------
E--2--4-4-

Riff 4 
G------
D------
A------
E-2-2--

Riff 5
G-------------------
D-------------------
A-------2--2--4-2---
E-2--5------------5-
[ Tab from: http://www.guitartabs.cc/tabs/s/sum_41/what_were_all_about_btab.html ]
Riff 6
G------------
D------------
A------------
E----2--2--5-

Riff 7 
G------------
D------------
A-2----------
E----2--2--5-

Riff 8  
G---------------------
D---------------------
A-----------------2-2-
E-2-2----------5------

And the order is : 
Riff 1x1
Riff 2x1
Riff 3x1
Riff 2x4
Riff 3x1
Riff 4x1
Riff 3x1
Riff 5x8
Riff 2x3
Riff 3x1
Riff 2x1
Riff 4x1
Riff 6x1
Riff 2x2
Riff 4x8
Riff 7x4 
Riff 1x1
Riff 2x1
Riff 3x1
Riff 2x3
Riff 8x1
Riff 2x2
Riff 3x1 
Riff 2x1
Riff 4x16
Riff 1x1
Comments