Sum 41 - What I Believe Chords & Tabs

 

What I Believe Chords & Tabs

Sum 41 Chords & Tabs

Version: 1 Type: Tab 0 ratings
1 star 2 stars 3 stars 4 stars 5 stars
comments

What I Believe Tab

WHAT I BELIEVE - Sum 41

Mattleone@localbar.com 

Intro: (Guitar 1) 
------------------------------------------------------------------------------ 
------------------------------------------------------------------------------ 
-11-11-111111111--1111-1111-11-11-1111111111-1111-1111------------------------ Play several 
------------------------------------------------------------------------------ times through 
-9--9--9-9-9-9-9--9-9--9-9--9--9--9-9-9-9-9--9-9--9-9------------------------- entire intro 
------------------------------------------------------------------------------ 
  
Intro: (Guitar 2) Play after a few times through the guitar 1 intro          
------------------------------------------------------------------------------ 
------------------------------------------------------------------------------ 
-8------------9------------11------------9------------------------------------ 
------------------------------------------------------------------------------ 
-6------------7------------9-------------7------------------------------------ 
------------------------------------------------------------------------------ 
                                                                               
------------------------------------------------------------------------------ 
------------------------------------------------------------------------------ 
-8------8--9--11-------9--6--------------9------------------------------------ 
------------------------------------------------------------------------------ 
-6------6--7--9--------7--4--------------7------------------------------------ 
------------------------------------------------------------------------------ 
                                                                               
Intro Part 2 (Guitar 2) 
------------------------------------------------------------------------------ 
------------------------------------------------------------------------------ 
-4--------------------------------------------------9------------------------- x2 
-4----------------6----------------4----------------9------------------------- 
-2----------------6----------------4----------------7------------------------- 
------------------4----------------2------------------------------------------ 
                                                                               
Intro Part2 (Guitar 1) 
------------------------------------------------------------------------------ 
-0--4--0-7--5--4--0--4--0-7--5--4--0--4--0-7--5--4--5--4--2-5--4--5----------- 
------------------------------------------------------------------------------ 
------------------------------------------------------------------------------ 
------------------------------------------------------------------------------ 
------------------------------------------------------------------------------ 
  
------------------------------------------------------------------------------ 
-0--4--0-7--5--4--0--4--0-7--5--4--0--4--0-7--5--4--5--4--2-0----------------- 
---------------------------------------------------------------3--4----------- 
------------------------------------------------------------------------------ 
------------------------------------------------------------------------------ 
------------------------------------------------------------------------------ 
[ Tab from: http://www.guitartabs.cc/tabs/s/sum_41/what_i_believe_tab.html ]
Verse: Guitar 2 
------------------------------------------------------------------------------ 
------------------------------------------------------------------------------ 
-4--------------------------------------------------9-------------------------  
-4----------------6----------------4----------------9------------------------- 
-2----------------6----------------4----------------7------------------------- 
------------------4----------------2------------------------------------------ 
                                                                              
------------------------------------------0----------------------------------- 
------------------------------------------0----------------------------------- 
-4---------------------------------------------------------------------------- 
-4----------------6----------------4------------------------------------------ 
-2----------------6----------------4------------------------------------------ 
------------------4----------------2------------------------------------------ 
                                                                               
------------------------------------------------------------------------------ 
------------------------------------------------------------------------------ 
-4---4---4-4-4-4-4---4--4-4-4-4----------------------------------------------- 
-4---4---4-4-4-4-4---4--4-4-4-4----------------------------------------------- 
-2---2---2-2-2-2-2---2--2-2-2-2----------------------------------------------- 
------------------------------------------------------------------------------ 
                                                                               
Guitar 1: Play with above B 
------------------------------------------------------------------------------ 
------------------------------------------------------------------------------ 
-2----1-----2----1----2--1---------------------------------------------------- 
------------------------------------------------------------------------------ 
------------------------------------------------------------------------------ 
------------------------------------------------------------------------------ 
                                                                               
Guitar 2:  "so understanding , but so far from the truth" 
------------------------------------------------------------------------------ 
------------------------------------------------------------------------------ 
------------------------------------------------------------------------------ 
-4-------2-------4-------6---------------------------------------------------- 
-4-------2-------4-------6---------------------------------------------------- 
-2-------0-------2-------4---------------------------------------------------- 
                                                                               
          "Its all I have to live with, its not all I wanted to.." 
------------------------------------------------------------------------------ 
------------------------------------------------------------------------------ 
------------------------------------------------------------------------------ 
-4---------------2-------4---------------------------------------------------- x1 
-4---------------2-------4---------------------------------------------------- 
-2---------------0-------2---------------------------------------------------- 
  
Guitar 1: Comes in with this riff twice 
------------------------------------------------------------------------------ 
------------------------------------------------------------------------------ 
-------------------------8-----9----8----6------------------------------------ 
------------------------------------------------------------------------------ x2 
-------------------------6-----7----6----4------------------------------------ 
------------------------------------------------------------------------------           
 "Be...Its not all I wanted to.." 
------------------------------------------------------------------------------ 
------------------------------------------------------------------------------ 
-4----------------4----------------------------------------------------------- 
-4-------2---4----4----------------------------------------------------------- x1 
-2-------2---4----2----------------------------------------------------------- 
---------0---2---------------------------------------------------------------- 
                                                                               
"I cant keep on leading and left what Im leaving, I guess thats just what I believe" 
------------------------------------------------------------------------------ 
------------------------------------------------------------------------------ 
-----------------4-------------------------------4---------------------------- 
-2-------4-------4-------2-------4-------2-------4---------------------------- 
-2-------4-------2-------2-------4-------2-------2---------------------------- 
-0-------2---------------0-------2-------0------------------------------------ 
                                                                               
  "Its what you could................."       
------------------------------------------------------------------------------ 
------------------------------------------------------------------------------ 
-4-------------------------------4-------------------------------------------- 
-4-------4-------2-------6---4---4-------4-------2-------6---4---------------- 
-2-------4-------2-------6---4---2-------4-------2-------6---4---------------- 
---------2-------0-------4---2-----------2-------0-------4---2---------------- 
                                                                               
Guitar 1: Comes in with this transition thing once 
------------------------------------------------------------------------------ 
------------------------------------------------------------------------------ 
-9-------8-------6-------4---------------------------------------------------- 
------------------------------------------------------------------------------ 
-7-------6-------4-------2---------------------------------------------------- 
------------------------------------------------------------------------------ 

Listen to the song for the rythms. 
====
Comments