Sum 41 - Were All To Blame Chords & Tabs

 

Were All To Blame Chords & Tabs

Sum 41 Chords & Tabs

Version: 1 Type: Tab 3 ratings
1 star 2 stars 3 stars 4 stars 5 stars
comments

Were All To Blame Tab

   
Sum 41
We're all to blame
Chuck


Eb|--------------------------------|--------------------------------|
Bb|--------------------------------|--------------------------------|
Gb|9---9-9-9---9-9-9---9-9-10--9---|9---9-9-9---9-9-9---9-9-10--9---|
Db|x---x-x-x---x-x-x---x-x-x---x---|x---x-x-x---x-x-x---x-x-x---x---|
Ab|7---7-7-7---7-7-7---7-7-8---7---|7---7-7-7---7-7-7---7-7-8---7---|
Eb|--------------------------------|--------------------------------|
   1 e & a 2 e & a 3 e & a 4 e & a  1 e & a 2 e & a 3 e & a 4 e & a

   D#                      e   D#   B5   A#5  B5   C#5  A#5  B5
Eb|--------------------------------|--------------------------------|
Bb|--------------------------------|--------------------------------|
Gb|9---9-9-9---9-9-9---9-9-10--9---|--------------------------------|
Db|x---x-x-x---x-x-x---x-x-x---x---|10---9----10---12---9----10-----|
Ab|7---7-7-7---7-7-7---7-7-8---7---|10---9----10---12---9----10-----|
Eb|--------------------------------|8----7----8----10---7----8------|
   1 e & a 2 e & a 3 e & a 4 e & a  1    e    a    3    e    a

(0:09):
   D#5 (m)
Eb|--------------------------------|--------------------------------|
Bb|--------------------------------|--------------------------------|
Gb|------------------------12------|------------------------12------|
Db|2-2-2-2-2-2-2-2-2-------x-------|2-2-2-2-2-2-2-2-2-------x-------|
Ab|2-2-2-2-2-2-2-2-2-------10------|2-2-2-2-2-2-2-2-2-------10------|
Eb|0-0-0-0-0-0-0-0-0---------------|0-0-0-0-0-0-0-0-0---------------|
   1 e & a 2 e & a 3 e & a 4 e & a  1 e & a 2 e & a 3 e & a 4 e & a
   . . . . . . . . .                . . . . . . . . .
                                    B5   A#5  B5   C#5  A#5  B5
Eb|--------------------------------|--------------------------------|
Bb|--------------------------------|--------------------------------|
Gb|------------------------12------|--------------------------------|
Db|2-2-2-2-2-2-2-2-2-------x-------|10---9----10---12---9----10-----|
Ab|2-2-2-2-2-2-2-2-2-------10------|10---9----10---12---9----10-----|
Eb|0-0-0-0-0-0-0-0-0---------------|8----7----8----10---7----8------|
   1 e & a 2 e & a 3 e & a 4 e & a  1    e    a    3    e    a
   . . . . . . . . .
   B5   A#5  B5   C#5  A#5  B5     D#5
Eb|--------------------------------|--------------------------------|
Bb|--------------------------------|--------------------------------|
Gb|--------------------------------|.-------.-------.-------.-------|
Db|10---9----10---12---9----10-----|2-------2-------2-------2-------|
Ab|10---9----10---12---9----10-----|2-------2-------2-------2-------|
Eb|8----7----8----10---7----8------|0-------0-------0-------0-------|
   1    e    a    3    e    a       1       2       3       4
   .    .    .    .    .    .



1st VERSE (0:18):
   N.C.
Eb|--------------------------------|--------------------------------|\
Bb|--------------------------------|--------------------------------| \
Gb|-9-9-9-9-9-9-9-9-9-9-9-9-4-4-4-4-7-7-7-7-7-7-5-5-5-5-7-7-7-7-7-7-|\
Db|-x-x-x-x-x-x-x-x-x-x-x-x-x-x-x-x-x-x-x-x-x-x-x-x-x-x-x-x-x-x-x-x|-  \
Ab|-7-7-7-7-7-7-7-7-7-7-7-7-2-2-2-2-5-5-5-5-5-5-3-3-3-3-5-5-5-5-5-5-|  \
Eb|--------------------------------|--------------------------------|     \
  1 e & a 2 e & a 3 e & a 4 e & a  1 e & a 2 e & a 3 e & a 4 e & a         \
                                                                            |Play three and a half times, then play below.
   D#5     F#5 D#5         F5  D#5          E5  D#5     E5  D#5 E5         /
Eb|--------------------------------|--------------------------------|     /
Bb|--------------------------------|--------------------------------|    /
Gb|--------------------------------|--------------------------------|   /
Db|2-----2-5---2---2-----2-4---2---|2-----2-3---2---2---3---2---3---|  /
Ab|2-----2-5---2---2-----2-4---2---|2-----2-3---2---2---3---2---3---| /
Eb|0-----0-3---0---0-----0-2---0---|0-----0-1---0---0---1---0---1---|/
   1 e & a 2 e & a 3 e & a 4 e & a  1 e & a 2 e & a 3 e & a 4 e & a
   .     . .   .   .     . .   .    .     . .   .   .       .

   D#5     F#5 D#5         F5  D#5  B5   A#5  B5   C#5  A#5  B5
Eb|--------------------------------|--------------------------------|
Bb|--------------------------------|--------------------------------|
Gb|--------------------------------|--------------------------------|
Db|2-----2-5---2---2-----2-4---2---|10---9----10---12---9----10-----|
Ab|2-----2-5---2---2-----2-4---2---|10---9----10---12---9----10-----|
Eb|0-----0-3---0---0-----0-2---0---|8----7----8----10---7----8------|
   1 e & a 2 e & a 3 e & a 4 e & a  1    e    a    3    e    a
   .     . .   .   .     . .   .



1st CHORUS (0:42):
Clean Guitar w/ Tremolo effect
   G#m                              C#m
Eb|0~------------------------------|1~------------------------------|
Bb|1~------------------------------|3~------------------------------|
Gb|2~------------------------------|2~------------------------------|
Db|2~------------------------------|0~------------------------------|
Ab|0~------------------------------|--------------------------------|
Eb|--------------------------------|--------------------------------|

   F#                               D#(m)
Eb|3~------------------------------|0~------------------------------|
Bb|3~------------------------------|0~------------------------------|
Gb|4~------------------------------|1~------------------------------|
Db|5~------------------------------|2~------------------------------|
Ab|5~------------------------------|2~------------------------------|
Eb|3~------------------------------|0~------------------------------|

(0:48):
   G#m             C#m              F#              D#(m)
Eb|0---0---0---0-0-1---1---1---1-0-|3---3---3---3-0-0---0---0---0-0-|\
Bb|1---1---1---1-0-3---3---3---3-0-|3---3---3---3-0-0---0---0---0-0-| \
Gb|2---2---2---2-0-2---2---2---2-0-|4---4---4---4-0-1---1---1---1-0-|  |Play three times.
Db|2---2---2---2-0-0---0---0---0-0-|5---5---5---5-0-2---2---2---2-0-|  |
Ab|0---0---0---0-0-----------------|5---5---5---5-0-2---2---2---2-0-| /
Eb|--------------------------------|3---3---3---3-0-0---0---0---0-0-|/
   1 e & a 2 e & a 3 e & a 4 e & a  1 e & a 2 e & a 3 e & a 4 e & a

(1:06):
   D#(m)
Eb|0-------------------------------|
Bb|0-------------------------------|
Gb|1-------------------------------|
Db|2-------------------random------|
Ab|2-------------------slide-------|
Eb|0-------------------------------|
   1 e & a 2 e & a 3 e & a 4 e & a
Distortion:
   B5   A#5  B5   C#5  A#5  B5     D#5
Eb|--------------------------------|--------------------------------|
Bb|--------------------------------|--------------------------------|
Gb|--------------------------------|.-------.-------.-------.-------|
Db|10---9----10---12---9----10-----|2-------2-------2-------2-------|
Ab|10---9----10---12---9----10-----|2-------2-------2-------2-------|
Eb|8----7----8----10---7----8------|0-------0-------0-------0-------|
   1    e    a    3    e    a       1       2       3       4



2nd VERSE (1:11):

Repeat 1st VERSE.



2nd CHORUS (1:34):

Repeat 1st CHORUS. Stop at "1:06" and play the below instead (1:59).



BRIDGE (1:59):
   G#m             e                B               F#
Eb|0---0---0---0-0-1---1---1---1-0-|x---x---x---x-0-3---3---3---3-0-|
Bb|1---1---1---1-0-1---1---1---1-0-|5---5---5---5-0-3---3---3---3-0-|
Gb|2---2---2---2-0-2---2---2---2-0-|5---5---5---5-0-4---4---4---4-0-|
Db|2---2---2---2-0-3---3---3---3-0-|5---5---5---5-0-5---5---5---5-0-|
Ab|0---0---0---0-0-3---3---3---3-0-|3---3---3---3-0-5---5---5---5-0-|
Eb|----------------1---1---1---1-0-|----------------3---3---3---3-0-|
   1 e & a 2 e & a 3 e & a 4 e & a  1 e & a 2 e & a 3 e & a 4 e & a

   G#m             e                B               F#
Eb|0---0---0---0-0-1---1---1---1-0-|x---x---x---x-0-3~--------------|
Bb|1---1---1---1-0-1---1---1---1-0-|5---5---5---5-0-3~--------------|
Gb|2---2---2---2-0-2---2---2---2-0-|5---5---5---5-0-4~--------------|
Db|2---2---2---2-0-3---3---3---3-0-|5---5---5---5-0-5~--------------|
Ab|0---0---0---0-0-3---3---3---3-0-|3---3---3---3-0-5~--------------|
Eb|----------------1---1---1---1-0-|----------------3~--------------|
   1 e & a 2 e & a 3 e & a 4 e & a  1 e & a 2 e & a 3 e & a 4 e & a
                                                                F#5
Eb|(3)-----------------------------|(3)-----------------------------|
Bb|(3)-----------------------------|(3)-----------------------------|
Gb|(4)-----------------------------|(4)-----------------------------|
Db|(5)-----------------------------|(5)-------------------------5---|
Ab|(5)-----------------------------|(5)-------------------------5---|
Eb|(3)-----------------------------|(3)-------------------------3---|
   1 e & a 2 e & a 3 e & a 4 e & a  1 e & a 2 e & a 3 e & a 4 e & a



3rd VERSE (2:13):
Deryck probably doesn't play this part, but I'll tab it out anyways.

   D#5         F#5 D#5         F5   D#5         F5  D#5 F#5 G#5 e
Eb|--------------------------------|--------------------------------|
Bb|--------------------------------|--------------------------------|
Gb|--------------------------------|----------------------------10--|
Db|2-----------5---2-----------4---|2-----------4---2---5---7---x---|
Ab|2-----------5---2-----------4---|2-----------4---2---5---7---8---|
Eb|0---0-0-0-0-3---0---0-0-0-0-2---|0---0-0-0-0-2---0---3---5-------|
   1 e & a 2 e & a 3 e & a 4 e & a  1 e & a 2 e & a 3 e & a 4 e & a
       . . . .         . . . .          . . . .
   D#5         F#5 D#5         F5   D#5         F5  D#5 F#5 G#5 e
Eb|--------------------------------|--------------------------------|
Bb|--------------------------------|--------------------------------|
Gb|--------------------------------|----------------------------10--|
Db|2-----------5---2-----------4---|2-----------4---2---5---7---x---|
Ab|2-----------5---2-----------4---|2-----------4---2---5---7---8---|
Eb|0---0-0-0-0-3---0---0-0-0-0-2---|0---0-0-0-0-2---0---3---5-------|
   1 e & a 2 e & a 3 e & a 4 e & a  1 e & a 2 e & a 3 e & a 4 e & a
       . . . .         . . . .          . . . .

(2:19):
Again, Deryck probably doesn't play this part.
   D#5
Eb|--------------------------------|--------------------------------|
Bb|--------------------------------|--------------------------------|
Gb|--------------------------------|--------------------------------|
Db|2---2-2-2-2-2-2-2---------------|2---2-2-2-2-2-2-2---------------|
Ab|2---2-2-2-2-2-2-2---------------|2---2-2-2-2-2-2-2---------------|
Eb|0---0-0-0-0-0-0-0---------------|0---0-0-0-0-0-0-0---------------|
   1 e & a 2 e & a 3 e & a 4 e & a  1 e & a 2 e & a 3 e & a 4 e & a
       . . . . . .                      . . . . . .         N.C.
Eb|--------------------------------|--------------------------------|
Bb|--------------------------------|--------------------------------|
Gb|--------------------------------|--------------------------------|
Db|2---2-2-2-2-2-2-2---------------|2---2-2-2-2-2-2-2-------random--|
Ab|2---2-2-2-2-2-2-2---------------|2---2-2-2-2-2-2-2-------slide---|
Eb|0---0-0-0-0-0-0-0---------------|0---0-0-0-0-0-0-0---------------|
   1 e & a 2 e & a 3 e & a 4 e & a  1 e & a 2 e & a 3 e & a 4 e & a
       . . . . . .                      . . . . . .
   D#5                     B        D#5                     A#
Eb|--------------------------------|--------------------------------|
Bb|--------------------------------|--------------------------------|
Gb|------------------------5-------|------------------------4-------|
Db|2---2-2-2-2-2-2-2-------x-------|2---2-2-2-2-2-2-2-------x-------|
Ab|2---2-2-2-2-2-2-2-------3-------|2---2-2-2-2-2-2-2-------2-------|
Eb|0---0-0-0-0-0-0-0---------------|0---0-0-0-0-0-0-0---------------|
   1 e & a 2 e & a 3 e & a 4 e & a  1 e & a 2 e & a 3 e & a 4 e & a
       . . . . . .                      . . . . . .
   D#5                     B        F#5
Eb|--------------------------------|----------------|----------------|
Bb|--------------------------------|----------------|----------------|
Gb|------------------------5-------|----------------|----------------|
Db|2---2-2-2-2-2-2-2-------x-------|5-5-5-5-5-5-5-5-|5-5-5-5-5-5-5-5-|
Ab|2---2-2-2-2-2-2-2-------3-------|5-5-5-5-5-5-5-5-|5-5-5-5-5-5-5-5-|
Eb|0---0-0-0-0-0-0-0---------------|3-3-3-3-3-3-3-3-|3-3-3-3-3-3-3-3-|
   1 e & a 2 e & a 3 e & a 4 e & a  1 & 2 & 3 & 4 &  1 & 2 & 3 & 4 &
       . . . . . .                  . . . . . . . .  . . .


[ Tab from: http://www.guitartabs.cc/tabs/s/sum_41/were_all_to_blame_tab.html ]
3rd CHORUS (2:31):
   G#m             C#m              F#              D#(m)
Eb|0---0---0---0-0-1---1---1---1-0-|3---3---3---3-0-0---0---0---0-0-|\
Bb|1---1---1---1-0-3---3---3---3-0-|3---3---3---3-0-0---0---0---0-0-| \
Gb|2---2---2---2-0-2---2---2---2-0-|4---4---4---4-0-1---1---1---1-0-|  |Play two times.
Db|2---2---2---2-0-0---0---0---0-0-|5---5---5---5-0-2---2---2---2-0-|  |
Ab|0---0---0---0-0-----------------|5---5---5---5-0-2---2---2---2-0-| /
Eb|--------------------------------|3---3---3---3-0-0---0---0---0-0-|/
   1 e & a 2 e & a 3 e & a 4 e & a  1 e & a 2 e & a 3 e & a 4 e & a

(2:42):
   G#m             e                B               F#
Eb|0---0---0---0-0-1---1---1---1-0-|x---x---x---x-0-3---3---3---3-0-|\
Bb|1---1---1---1-0-1---1---1---1-0-|5---5---5---5-0-3---3---3---3-0-| \
Gb|2---2---2---2-0-2---2---2---2-0-|5---5---5---5-0-4---4---4---4-0-|  |Play four times.
Db|2---2---2---2-0-3---3---3---3-0-|5---5---5---5-0-5---5---5---5-0-|  |
Ab|0---0---0---0-0-3---3---3---3-0-|3---3---3---3-0-5---5---5---5-0-| /
Eb|----------------1---1---1---1-0-|----------------3---3---3---3-0-|/
   1 e & a 2 e & a 3 e & a 4 e & a  1 e & a 2 e & a 3 e & a 4 e & a



OUTRO (3:06):
Acoustic Guitar:
   G#m                              C#m
Eb|0~------------------------------|1~------------------------------|
Bb|1~------------------------------|3~------------------------------|
Gb|2~------------------------------|2~------------------------------|
Db|2~------------------------------|0~------------------------------|
Ab|0~------------------------------|--------------------------------|
Eb|--------------------------------|--------------------------------|

   F#                               D#(m)
Eb|3~------------------------------|0~------------------------------|
Bb|3~------------------------------|0~------------------------------|
Gb|0~------------------------------|1~------------------------------|
Db|0~------------------------------|2~------------------------------|
Ab|2~------------------------------|2~------------------------------|
Eb|3~------------------------------|0~------------------------------|

   G#m             C#m              F#              D#(m)
Eb|0---0---0---0-0-1---1---1---1-0-|3---3---3---3-0-0---0---0---0-0-|\
Bb|1---1---1---1-0-3---3---3---3-0-|3---3---3---3-0-0---0---0---0-0-| \
Gb|2---2---2---2-0-2---2---2---2-0-|0---0---0---0-0-1---1---1---1-0-|  |Play three times.
Db|2---2---2---2-0-0---0---0---0-0-|0---0---0---0-0-2---2---2---2-0-|  |
Ab|0---0---0---0-0-----------------|2---2---2---2-0-2---2---2---2-0-| /
Eb|--------------------------------|3---3---3---3-0-0---0---0---0-0-|/
   1 e & a 2 e & a 3 e & a 4 e & a  1 e & a 2 e & a 3 e & a 4 e & a

   G#m
Eb|0~------------------------------||
Bb|1~------------------------------||
Gb|2~------------------------------||
Db|2~------------------------------||
Ab|0~------------------------------||
Eb|--------------------------------||





================================

DAVE - LEAD GUITAR (D a D G B e)

================================

INTRO (0:03):
Distortion:
  D#                      e   D#                           e   D#
E|--------------------------------|--------------------------------|
B|--------------------------------|--------------------------------|
G|8---8-8-8---8-8-8---8-8-9---8---|8---8-8-8---8-8-8---8-8-9---8---|
D|x---x-x-x---x-x-x---x-x-x---x---|x---x-x-x---x-x-x---x-x-x---x---|
A|6---6-6-6---6-6-6---6-6-7---6---|6---6-6-6---6-6-6---6-6-7---6---|
D|--------------------------------|--------------------------------|
  1 e & a 2 e & a 3 e & a 4 e & a  1 e & a 2 e & a 3 e & a 4 e & a

  D#                      e   D#   B5   A#5  B5   C#5  A#5  B5
E|--------------------------------|--------------------------------|
B|--------------------------------|--------------------------------|
G|8---8-8-8---8-8-8---8-8-9---8---|4----3----4----6----3----4------|
D|x---x-x-x---x-x-x---x-x-x---x---|4----3----4----6----3----4------|
A|6---6-6-6---6-6-6---6-6-7---6---|2----1----2----4----1----2------|
D|--------------------------------|--------------------------------|
  1 e & a 2 e & a 3 e & a 4 e & a  1    e    a    3    e    a
                          *random slide
(0:09):
  D#5 (m)
E|--------------------------------|--------------------------------|
B|--------------------------------|--------------------------------|
G|------------------------11------|------------------------11------|
D|1-1-1-1-1-1-1-1-1-------x-------|1-1-1-1-1-1-1-1-1-------x-------|
A|1-1-1-1-1-1-1-1-1-------9-------|1-1-1-1-1-1-1-1-1-------9-------|
D|1-1-1-1-1-1-1-1-1---------------|1-1-1-1-1-1-1-1-1---------------|
  1 e & a 2 e & a 3 e & a 4 e & a  1 e & a 2 e & a 3 e & a 4 e & a
  . . . . . . . . .                . . . . . . . . .
                                   B5   A#5  B5   C#5  A#5  B5
E|--------------------------------|--------------------------------|
B|--------------------------------|--------------------------------|
G|------------------------11------|4----3----4----6----3----4------|
D|1-1-1-1-1-1-1-1-1-------x-------|4----3----4----6----3----4------|
A|1-1-1-1-1-1-1-1-1-------9-------|2----1----2----4----1----2------|
D|1-1-1-1-1-1-1-1-1---------------|--------------------------------|
  1 e & a 2 e & a 3 e & a 4 e & a  1    e    a    3    e    a
  . . . . . . . . .
  B5   A#5  B5   C#5  A#5  B5      D#5
E|--------------------------------|--------------------------------|
B|--------------------------------|--------------------------------|
G|4----3----4----6----3----4------|.-------.-------.-------.-------|
D|4----3----4----6----3----4------|1-------1-------1-------1-------|
A|2----1----2----4----1----2------|1-------1-------1-------1-------|
D|--------------------------------|1-------1-------1-------1-------|
  1    e    a    3    e    a       1 e & a 2 e & a 3 e & a 4 e & a
  .    .    .    .    .    .



1st VERSE (0:18):
  D#                      A#       C#              B
E|--------------------------------|--------------------------------|
B|--------------------------------|--------------------------------|
G|8-8-8-8-8-8-8-8-8-8-8-8-3-3-3-3-|6-6-6-6-6-6-6-6-4-4-4-4-4-4-4-4-|
D|x-x-x-x-x-x-x-x-x-x-x-x-x-x-x-x-|x-x-x-x-x-x-x-x-x-x-x-x-x-x-x-x-|
A|6-6-6-6-6-6-6-6-6-6-6-6-1-1-1-1-|4-4-4-4-4-4-4-4-2-2-2-2-2-2-2-2-|
D|--------------------------------|--------------------------------|
  1 e & a 2 e & a 3 e & a 4 e & a  1 e & a 2 e & a 3 e & a 4 e & a

  D#5     F#5 D#5         F5  D#5          E5  D#5     E5  D#5 E5
E|--------------------------------|--------------------------------|
B|--------------------------------|--------------------------------|
G|--------------------------------|--------------------------------|
D|1-----1-4---1---1-----1-3---1---|1-----1-2---1---1---2---1---2---|
A|1-----1-4---1---1-----1-3---1---|1-----1-2---1---1---2---1---2---|
D|1-----1-4---1---1-----1-3---1---|1-----1-2---1---1---2---1---2---|
  1 e & a 2 e & a 3 e & a 4 e & a  1 e & a 2 e & a 3 e & a 4 e & a
  .     . .   .   .     . .   .    .     . .   .   .       .
  D#                      A#       B               C#
E|--------------------------------|--------------------------------|
B|--------------------------------|--------------------------------|
G|8-8-8-8-8-8-8-8-8-8-8-8-3-3-3-3-|4-4-4-4-4-4-4-4-6-6-6-6-6-6-6-6-|
D|x-x-x-x-x-x-x-x-x-x-x-x-x-x-x-x-|x-x-x-x-x-x-x-x-x-x-x-x-x-x-x-x-|
A|6-6-6-6-6-6-6-6-6-6-6-6-1-1-1-1-|2-2-2-2-2-2-2-2-4-4-4-4-4-4-4-4-|
D|--------------------------------|--------------------------------|
  1 e & a 2 e & a 3 e & a 4 e & a  1 e & a 2 e & a 3 e & a 4 e & a

  D#5     F#5 D#5         F5  D#5          E5  D#5     E5  D#5 E5
E|--------------------------------|--------------------------------|
B|--------------------------------|--------------------------------|
G|--------------------------------|--------------------------------|
D|1-----1-4---1---1-----1-3---1---|1-----1-2---1---1---2---1---2---|
A|1-----1-4---1---1-----1-3---1---|1-----1-2---1---1---2---1---2---|
D|1-----1-4---1---1-----1-3---1---|1-----1-2---1---1---2---1---2---|
  1 e & a 2 e & a 3 e & a 4 e & a  1 e & a 2 e & a 3 e & a 4 e & a
  .     . .   .   .     . .   .    .     . .   .   .       .

(0:30):
  D#          F#          F            C#          F
E|--------------------------------|--------------------------------|
B|--------------------------------|--------------------------------|
G|8-8-8-8-8-8-11111111111110101010|10106-6-6-6-6-6-1010101010101010|
D|x-x-x-x-x-x-x-x-x-x-x-x-x-x-x-x-|x-x-x-x-x-x-x-x-x-x-x-x-x-x-x-x-|
A|6-6-6-6-6-6-9-9-9-9-9-9-8-8-8-8-|8-8-4-4-4-4-4-4-8-8-8-8-8-8-8-8-|
D|--------------------------------|--------------------------------|
  1 e & a 2 e & a 3 e & a 4 e & a  1 e & a 2 e & a 3 e & a 4 e & a

  D#5     F#5 D#5         F5  D#5          E5  D#5     E5  D#5 E5
E|--------------------------------|--------------------------------|
B|--------------------------------|--------------------------------|
G|--------------------------------|--------------------------------|
D|1-----1-4---1---1-----1-3---1---|1-----1-2---1---1---2---1---2---|
A|1-----1-4---1---1-----1-3---1---|1-----1-2---1---1---2---1---2---|
D|1-----1-4---1---1-----1-3---1---|1-----1-2---1---1---2---1---2---|
  1 e & a 2 e & a 3 e & a 4 e & a  1 e & a 2 e & a 3 e & a 4 e & a
  .     . .   .   .     . .   .    .     . .   .   .       .
  D#          F#          C#       G#              F#
E|--------------------------------|--------------------------------|
B|--------------------------------|--------------------------------|
G|8-8-8-8-8-8-1111111111116-6-6-6-|13131313131313131111111111111111|
D|x-x-x-x-x-x-x-x-x-x-x-x-x-x-x-x-|x-x-x-x-x-x-x-x-x-x-x-x-x-x-x-x-|
A|6-6-6-6-6-6-9-9-9-9-9-9-4-4-4-4-|11111111111111119-9-9-9-9-9-9-9-|
D|--------------------------------|--------------------------------|
  1 e & a 2 e & a 3 e & a 4 e & a  1 e & a 2 e & a 3 e & a 4 e & a

  D#5     F#5 D#5         F5  D#5  B5   A#5  B5   C#5  A#5  B5
E|--------------------------------|--------------------------------|
B|--------------------------------|--------------------------------|
G|--------------------------------|4----3----4----6----3----4------|
D|1-----1-4---1---1-----1-3---1---|4----3----4----6----3----4------|
A|1-----1-4---1---1-----1-3---1---|2----1----2----4----1----2------|
D|1-----1-4---1---1-----1-3---1---|--------------------------------|
  1 e & a 2 e & a 3 e & a 4 e & a  1    e    a    3    e    a
  .     . .   .   .     . .   .



1st CHORUS (0:42):
  G#5
E|--------------------------------|--------------------------------|
B|--------------------------------|--------------------------------|
G|--------------------------------|--------------------------------|
D|6~------------------------------|(6)-----------------------------|
A|6~------------------------------|(6)-----------------------------|
D|6~------------------------------|(6)-----------------------------|   Rest for two more measures.

(0:48):
  G#m             C#m              F#              D#m
E|--------------------------------|--------------------------------|\
B|9~------------------------------|--------7~--------------7~------| \
G|----8~------8~------8~--9~--8~--|----6~------6~--8~--------------|  |Play three times.
D|--------9~------6~--------------|4~------------------8~------8~--|  |
A|--------------------------------|--------------------------------| /
D|--------------------------------|--------------------------------|/
  1 e & a 2 e & a 3 e & a 4 e & a  1 e & a 2 e & a 3 e & a 4 e & a

(1:06):
  D#
E|--------------------------------|
B|--------------------------------|
G|--------------------------------|
D|--------------------random------|
A|--------------------slide-------|
D|--------------------------------|
  1 e & a 2 e & a 3 e & a 4 e & a

  B5   A#5  B5   C#5  A#5  B5      D#5
E|--------------------------------|--------------------------------|
B|--------------------------------|--------------------------------|
G|4----3----4----6----3----4------|.-------.-------.-------.-------|
D|4----3----4----6----3----4------|1-------1-------1-------1-------|
A|2----1----2----4----1----2------|1-------1-------1-------1-------|
D|--------------------------------|1-------1-------1-------1-------|
  1    e    a    3    e    a       1 e & a 2 e & a 3 e & a 4 e & a



2nd VERSE (1:11):

Repeat 1st VERSE.



2nd CHORUS (1:34):

Repeat 1st CHORUS. Stop at "1:06" and play the below instead (1:59).



BRIDGE (1:59):
Piano part:
  G#m             e                B               F#
E|--------------------------------|--------------------------------|
B|9~--9~--9~--9~--11~-11~-11~-11~-|12~-12~-12~-12~-7~--7~--7~--7~--|
G|8~--8~--8~--8~--10~-10~-10~-10~-|11~-11~-11~-11~-6~--6~--6~--6~--|   
Comments