Sum 41 - Theres No Solution Chords & Tabs

 

Theres No Solution Chords & Tabs

Sum 41 Chords & Tabs

Version: 3 Type: Tab

Theres No Solution Tab

   
tunning : Eb Ab Db Gb Bb Eb

Theres No Solution by Sum 41 on Chuck


   Guitar 1 Intro
Eb|7---7---7-7---7-8|-7---7---7-7---7-8|-7---7---7-7---7-8|-7---7---7-7---7-8|
Bb|--5---5-----5----|---5---5-----5----|---5---5-----5----|---5---5-----5----|
Gb|-----------------|------------------|------------------|------------------|
Db|-----------------|------------------|------------------|------------------|
Ab|-----------------|------------------|------------------|------------------|
Eb|-----------------|------------------|------------------|------------------|

   Guitar 1 Intro cont.
Eb|7---7---7-7---7-8|-7---7---7-7---7-8|-7---7---7-7---7-8|-7---7---7-7---7-8|
Bb|--5---5-----5----|---5---5-----5----|---5---5-----5----|---5---5-----5----|
Gb|-----------------|------------------|------------------|------------------|
Db|-----------------|------------------|------------------|------------------|
Ab|-----------------|------------------|------------------|------------------|
Eb|-----------------|------------------|------------------|------------------|
  |Guitar 2 intro   |                  |                  |
Eb|-----------------|------------------|------------------|------------------|
Bb|-----------------|------------------|------------------|------------------|
Gb|-----------------|------------------|------------------|------------------|
Db|-----------------|------------------|------------------|------------------|
Ab|-----------------|3~~---------------|------------------|5~~---------------|
Eb|0~~--------------|------------------|3~~---------------|------------------|

   Guitar 1  Verse 1
Eb|7---7---7-7---7-8|-7---7---7-7---7-8|-7---7---7-7---7-8|-7---7---7-7---7-8|
Bb|--5---5-----5----|---5---5-----5----|---5---5-----5----|---5---5-----5----|
Gb|-----------------|------------------|------------------|------------------|
Db|-----------------|------------------|------------------|------------------|
Ab|-----------------|------------------|------------------|------------------|
Eb|-----------------|------------------|------------------|------------------|
  |Guitar 2 Verse 1 |                  |                  |                  
Eb|-----------------|------------------|------------------|------------------|
Bb|-----------------|------------------|------------------|------------------|
Gb|9~~--------------|5~~---------------|------------------|------------------|
Db|9~~--------------|5~~---------------|5~~---------------|4~~---------------|
Ab|7~~--------------|3~~---------------|5~~---------------|5~~---------------|
Eb|-----------------|------------------|3~~---------------|2~~---------------|
  ^play above twice^
[ Tab from: http://www.guitartabs.cc/tabs/s/sum_41/theres_no_solution_tab_ver_3.html ]
   Guitar 1  Pre-Chorus
Eb|7------7-----7-8|-7------7-----7-8|-7-7-7-5-5-5--------------------|
Bb|--5-5----5-5----|---5-5----5-5----|-------------8-8-8-8-8-7-7-7-5-5|
Gb|----------------|-----------------|--------------------------------|
Db|----------------|-----------------|--------------------------------|
Ab|----------------|-----------------|--------------------------------|
Eb|----------------|-----------------|--------------------------------|
  |Guitar 2 Pre-Chorus               |                                |
Eb|----------------|-----------------|--------------------------------|
Bb|----------------|-----------------|--------------------------------|
Gb|5~~-------------|7~~--------------|9~~-----------------------------|
Db|5~~-------------|7~~--------------|9~~-----------------------------|
Ab|3~~-------------|5~~--------------|7~~-----------------------------|
Eb|----------------|-----------------|--------------------------------|
   ^play this above twice^


  Chorus Both Guitars
Eb|---------------------------------------------|
Bb|---------------------------------------------|
Gb|----------7----5--------------7----4----7----|
Db|2----5----7----5----2----5----7----4----7----|
Ab|2----5----5----3----2----5----5----2----5----|
Eb|0----3--------------0----3-------------------|
  you can figure out strumming

   Guitar 1 Post-Chorus
Eb|7---7---7-7---7-8|-7---7---7-7---7-8|-7---7---7-7---7-8|-7---7---7-7---7-8|
Bb|--5---5-----5----|---5---5-----5----|---5---5-----5----|---5---5-----5----|
Gb|-----------------|------------------|------------------|------------------|
Db|-----------------|------------------|------------------|------------------|
Ab|-----------------|------------------|------------------|------------------|
Eb|-----------------|------------------|------------------|------------------|
   Guitar 2 Post-Chorus                |                  |
Eb|-----------------|------------------|------------------|------------------|
Bb|-----------------|------------------|------------------|------------------|
Gb|9----------------|------------------|------------------|------------------|
Db|9-(hold out this chord)-------------|------------------|------------------
Ab|7----------------|------------------|------------------|------------------|
Eb|-----------------|------------------|------------------|------------------|

Verse 2    (Play Verse 1)
Pre-Chorus (Play Pre-Chorus)
Chorus 2   (Play Chorus 1)

   Bridge Both Guitars
Eb|-------------------------------------|
Bb|-------------------------------------|
Gb|5--7-----------------5----7----4----7|
Db|5--7-----------------5----7----4----7|
Ab|3--5-----------0--3--3----5----2----5|
Eb|------0--2--3------------------------|

Play Chorus again

  Outro Pt.1 Both Guitars
Eb|--------------------|
Bb|--------------------|
Gb|9----5--------------|
Db|9----5----5----5----|x2
Ab|7----3----5----4----|
Eb|0---------3----2----|

  Outro Pt.2 Guitar 1
Eb|7---7---7-7---7-8|  |-7---7---7-7---7-8--|
Bb|--5---5-----5----|  |---5---5-----5------|
Gb|-----------------|  |--------------------|
Db|-----------------|x3|------------------22|
Ab|-----------------|  |------------------22|
Eb|-----------------|  |------------------00|
   Outro Pt.2 Guitar 2
Eb|-----------------|  |--------------------|
Bb|-----------------|  |--------------------|
Gb|9----------------|x3|--------------------|
Db|9-(hold this chord) |------------------22|
Ab|7----------------|  |------------------22|
Eb|-----------------|  |------------------00|


Thanks to Gabe