Sum 41 - Summer Chords & Tabs

 

Summer Chords & Tabs

Sum 41 Chords & Tabs

Version: 7 Type: Tab 0 ratings
1 star 2 stars 3 stars 4 stars 5 stars
comments

Summer Tab

           e  ------55--5---33--3---22--2-3-2---------------------
           B  ------33--3---33--3---33--3-3-3---------------------
           G  ----------------------------------------------------
           D  ----------------------------------------------------
           A  ----------------------------------------------------
           E  ----------------------------------------------------

            Guitar 2: intro
           
           e   ---------------------------------------------------
           B   ---------------------------------------------------
           G   -------7-------4-----------------------------------
           D   -------7-------4------5---------7------------------
           A   -------5-------2------5---------7------------------
           E   ----------------------3---------5------------------
                 Let ring out

            Guitar 1: intro 2

           e   ---------------------------------------------------
           B   ---------------------------------------------------
           G   ---------------------------------------------------
           D   ---------------------------------------------------
           A   ----5--5s7--7s9--10-9------5--5s7--7s9---10--12----
           E   ---------------------------------------------------

[ Tab from: http://www.guitartabs.cc/tabs/s/sum_41/summer_tab_ver_7.html ]
           e   ---------------------------------------------------
           B   ---------------------------------------------------
           G   ---------------------------------------------------
           D   ---------------------------------------------------
           A   ----5--5s7--7s9--10-9--------5--5s7--7s9--10--9----
           E   ---------------------------------------------------

           e   ---------------------------------------------------
           B   ---------------------------------------------------
           G   ---------------------------------------------------
           D   ---------------------------------------------------
           A   ----5--5s7--7s9---7h9p7----5-----------------------
           E   ---------------------------------------------------

                 Not all that sure about that part but hey it works for me.


            Guitar 1: verse

           e   ---------------------------------------------------
           B   ---------------------------------------------------
           G   ----777777777----44444444--------------------------
           D   ----777777777----44444444-----55555555----77777777-
           A   ----555555555----22222222-----55555555----77777777-
           E   ------------------------------33333333----55555555-

          intro 2
          verse 

            At the end of the second time you play the verse you go

           e   --------------------------------------------------
           B   --------------------------------------------------
           G   --------------------------------------------------
           D   --------------------------------------------------
           A   -----5------------7-------------------------------
           E   -----3------------5-------------------------------
                             (Let ring)

          then play verse but only struming each chord twice.

          Intro 2
          verse pm
          verse


          Pretty easy song if you know what your doing.
Comments