Sum 41 - Summer Chords & Tabs

 

Summer Chords & Tabs

Sum 41 Chords & Tabs

Version: 3 Type: Tab 0 ratings
1 star 2 stars 3 stars 4 stars 5 stars
comments

Summer Tab

Band:Sum 41
Song:Summer
Album:All Killer No Filler

No one has entered a tab for Summer at this site (other than the intro) so I thought I'd try...
[ Tab from: http://www.guitartabs.cc/tabs/s/sum_41/summer_tab_ver_3.html ]
E:----------------------------------------------------------
B:----------------------------------------------------------
G:-5-5--7-7--9-9-9-10-9-----5-5--7-7--9-9-9-10-12-----------
D:-3-3--5-5--7-7-7--8-7-----3-3--5-5--7-7-7--8-10-----------
A:----------------------------------------------------------
E:----------------------------------------------------------

E:----------------------------------------------------------
B:----------------------------------------------------------
G:-5-5--7-7--9p7-9-7----------------------------------------
D:-3-3--5-5--7---7-5----------------------------------------
A:----------------------------------------------------------
E:----------------------------------------------------------

Well thats it, its only the verse, if you want the intro some other guy tabbed it up and its correct.
Comments