Sum 41 - Summer Chords & Tabs

 

Summer Chords & Tabs

Sum 41 Chords & Tabs

Version: 1 Type: Tab 0 ratings
1 star 2 stars 3 stars 4 stars 5 stars
comments

Summer Tab

E|-777-555-444-/5\2------------- By the way /\= Slide
B|-555-333-222--3-4---------------- Do this Part X 4
G|--------------------------------------------- (PART A)
D|---------------------------------------------
A|---------------------------------------------
E|---------------------------------------------
____________________________________________________
E|-------------------------------------------------PART
B|------------------------------------------------- B
G|-4-6-8-*9-8*(X2)*however, the second time, Switch the 
D|-2-4-6-*7-6*-----7-9-11-12-11---------Last two cords)
A|---------------5-7-9--10-9-----------------
E|-------------------------------------------------
______________________________________________________
Its all beyond your reach... PART C
E|---------------------------------------------------
B|---------------------------------------------------
G|---------------------------------------------------
D|-55555-66666-------77777------------ Do this part
A|-77777-44444-55555-55555------------------- Twice.
E|-------------77777-----------------------
Then Part B, Then Part C Again.
_______________________________________________________
Whooaaaaa.

E|-------------------------------------------------
B|-------------------------------------------------
G|-------5-----------------------------------------
D|-5-9---7-5-7-Its not in what you do, what youdo 5
A|-3-7-----7-5------------------------------------7
E|-------------------------------------------------

this part repeats. 

Put it all together. Thanks. MY Names Terry John Skolnik,
Live in MTL, im a drummer. If you need one email me.
Please Email me anyways to tell my if this tab is good or not
its my 1st so, gimme some feedback. vices_torn@hotmail.com

[ Tab from: http://www.guitartabs.cc/tabs/s/sum_41/summer_tab.html ]
Comments