Sum 41 - Summer Chords & Tabs

 

Summer Chords & Tabs

Sum 41 Chords & Tabs

Version: 2 Type: Bass Tab 0 ratings
1 star 2 stars 3 stars 4 stars 5 stars
comments

Summer Bass Tab

never seen a rigth bass tab of summer so i decidet to tab
you can mail me for mistakes or anything else at yong_sum41@hotmail.com

Tab:
[intro]
G|------------------------|
D|------------------------|
A|-5-----2----------------|
E|-------------3-----5----|

[riff]
G|---------------------------------------------------------|
D|---------------------------------------------------------|
A|-5-55-55-4575--2-22-22-1242------------------------------|
E|-----------------------------3-33-33-2353--5-55-55-4575--|

[verse]
G|--------------------------------|
D|--------------------------------| 4x
A|-5~~-----2~~--------------------|
E|-----------------3~~-----5~~----|

[riff]
[verse]
[ Tab from: http://www.guitartabs.cc/tabs/s/sum_41/summer_btab_ver_2.html ]
you can't let it go...
G|--------------------|
D|--------------------|
A|--------------------|
E|--2~~~~~~/5~~-------|

whoa.......
G|--------------------------------|
D|--------------------------------|  1x
A|--55555-22222-------------------|
E|--------------33333-------------|

stuff up there again then ^ this again

you don't even now....
G|----------------------------|
D|----------------------------|
A|--55555-22------------------|
E|---------------5~~555-------|

[chorus]
G|----------------------------------|
D|----------------------------------| 4x
A|--555555-222222-------------------|
E|----------------333333-555555-----|

[riff] 2x

A million quostions askt.....
G|----------------------------------|
D|----------------------------------| 4x
A|--555555-222222-------------------|
E|----------------333333-555555-----|

whoa part
[chorus] many times:P end on
E|---5---

thats it be happy with it:D
Comments