Sum 41 - Subject To Change Chords & Tabs

 

Subject To Change Chords & Tabs

Sum 41 Chords & Tabs

Version: 1 Type: Tab 2 ratings
1 star 2 stars 3 stars 4 stars 5 stars
comments

Subject To Change Tab

   
Artist: Sum 41
Song: Subject to change
Album: Chuck


Tuning: Eb Ab Db Gb Bb Eb

Key

pm..= palm mute
  h = Hammer on
  p = Pull of


Intro

Guitar 1

Part A
     (Em)             (B#)      (Bm)     
eb -----7-------7---------8--------7-----\\-----------------|
Bb -----8-------8---------8--------7------\\----------------|
Gb ---9---9---9---9-----9---9----7---7-----\\---------------|
Db -9-------9--------10--------9-----------/-Repeat x4-----|
Ab ---------------------------------------/----------------|
Eb --------------------------------------/-----------------|


Part B
eb --------------------------------------------------------------------|
Bb ---8-7---8-7---8-7-8-7-8-7----8-7---8-7---8-7-10h8-7-8-7------------|
Gb -7-----7-----7--------------7-----7-----7---------------------------|
Db --------------------------------------------------------------------|
Ab --------------------------------------------------------------------|
Eb --------------------------------------------------------------------|


Part C
eb -----------------------------------------------------------------------|\\
Bb -8-8-7-7-8-8-10-10-8-8-5-5-7-7-3--8-8-7-7-8-8-10-10-8-8-7-7-5-5-3------| \\
Gb -----------------------------------------------------------------------|  \\ x2
Db -----------------------------------------------------------------------|  /
Ab -----------------------------------------------------------------------| /
Eb -----------------------------------------------------------------------|/



Guitar 2

Part A
eb ---------7----8----7----7-----8----7------|
Bb ---------8----8----7----8-----8----7------|
Gb ---------9----9----7----9-----9----7------|
Db -2-2-2---9---10----9----9----10----9------|
Ab -2-2-2---7---10----9----7----10----9------|
Eb -0-0-0---7----8----7----7-----8----7------|
  pm. . .


Part B
eb ----------------------------------------------------------------|
Bb ----------------------------------------------------------------|
Gb ----------------------------------------------------------------|
Db -222222222222222222222222222222222222222222222222222222222------|
Ab -222222222222222222222222222222222222222222222222222222222------|
Eb -000000000000000000000000000000000000000000000000000000000------|
  pm.........................................................


Part C
eb ------------------------------------------------------------------|\\
Bb ------------------------------------------------------------------| \\
Gb ------------------------------------------------------------------|  \\ x2
Db --2-2-2-2-2-2-2--7-7-7-7-7-7-7--5-5-5-5-5-5-5---------7-7-7-------|  /
Ab --2-2-2-2-2-2-2--5-5-5-5-5-5-5--3-3-3-3-3-3-3--5-5-5--5-5-5-------| /
Eb --0-0-0-0-0-0-0--------------------------------3-3-3--------------|/




1st Verse (0:39)

         (                                -7-)
Guitar 1 (all in light palm muting except -5-)
eb --------------------------------------------------------------------------------------------
Bb --------------------------------------------------------------------------------------------
Gb ---------------------2----------------------2----------------------2----------------------2-
Db ---2-5h4p0-----5----------2-5h4p0-----5----------2-5h4p0-----5----------2-5h4p0-----5-------
Ab -2---------2-2---2-2----2---------2-2---2-2----2---------2-2---2-2----2---------2-2---2-2---
Eb --------------------------------------------------------------------------------------------


eb ------------------------------------------------------------------------------------------|
Bb ------------------------------------------------------------------------------------------|
Gb ----------------------2---------------------2-----------------------2---------------------|
Db ---2-5h4p0-----5----------2-5h4p0-----5----------2-5h4p0-----5----------2-5h4p0--7-7-7-7--|
Ab -2---------2-2---2-2----2---------2-2---2-2----2---------2-2---2-2----2----------5-5-5-5--|
Eb ------------------------------------------------------------------------------------------|


Guitar 2
eb ------------------------------------------------------
Bb ------------------------------------------------------
Gb ------------------------------------------------------
Db --2-2-2-2-----2-2-2-2-----2-2-2-2-----2-2-2-2---------
Ab --2-2-2-2-----2-2-2-2-----2-2-2-2-----2-2-2-2---------
Eb --0-0-0-0-----0-0-0-0-----0-0-0-0-----0-0-0-0---------
   pm. . . .     . . . .     . . . .     . . . .
[ Tab from: http://www.guitartabs.cc/tabs/s/sum_41/subject_to_change_tab.html ]
   (                                 -7-)
   (this in light palm muting except -5-)
eb ------------------------------------------------------------------------------------------|
Bb ------------------------------------------------------------------------------------------|
Gb ----------------------2---------------------2-----------------------2---------------------|
Db ---2-5h4p0-----5----------2-5h4p0-----5----------2-5h4p0-----5----------2-5h4p0--7-7-7-7--|
Ab -2---------2-2---2-2----2---------2-2---2-2----2---------2-2---2-2----2----------5-5-5-5--|
Eb ------------------------------------------------------------------------------------------|



Chorus (0:58) Guitar 1/Guitar 2

eb -------------------------------------------|\\
Bb -------------------------------------------| \\
Gb -------------------------------------------|  \\ x4
Db -5-5-5-5-----------7-7-7-7-7-7-7-7-7-------|  /
Ab -3-3-3-3--5-5-5-5--5-5-5-5-5-5-5-5-5-------| /
Eb ----------3-3-3-3--------------------------|/


After Chorus (1:18)

Guitar 1
eb -----------------------------------------------------------------------|
Bb -8-8-7-7-8-8-10-10-8-8-5-5-7-7-3--8-8-7-7-8-8-10-10-8-8-7-7-5-5-3------|
Gb -----------------------------------------------------------------------|
Db -----------------------------------------------------------------------|
Ab -----------------------------------------------------------------------|
Eb -----------------------------------------------------------------------|

Guitar2
eb ------------------------------------------------------------------|
Bb ------------------------------------------------------------------|
Gb ------------------------------------------------------------------|
Db --2-2-2-2-2-2-2--7-7-7-7-7-7-7--5-5-5-5-5-5-5---------7-7-7-------|
Ab --2-2-2-2-2-2-2--5-5-5-5-5-5-5--3-3-3-3-3-3-3--5-5-5--5-5-5-------|
Eb --0-0-0-0-0-0-0--------------------------------3-3-3--------------|



2nd Verse (1:23)
                  (                                -7-)
Guitar 1/Guitar 2 (all in light palm muting except -5-)
eb --------------------------------------------------------------------------------------------
Bb --------------------------------------------------------------------------------------------
Gb ---------------------2----------------------2----------------------2----------------------2-
Db ---2-5h4p0-----5----------2-5h4p0-----5----------2-5h4p0-----5----------2-5h4p0-----5-------
Ab -2---------2-2---2-2----2---------2-2---2-2----2---------2-2---2-2----2---------2-2---2-2---
Eb --------------------------------------------------------------------------------------------


eb ------------------------------------------------------------------------------------------|
Bb ------------------------------------------------------------------------------------------|
Gb ----------------------2---------------------2-----------------------2---------------------|
Db ---2-5h4p0-----5----------2-5h4p0-----5----------2-5h4p0-----5----------2-5h4p0--7-7-7-7--|
Ab -2---------2-2---2-2----2---------2-2---2-2----2---------2-2---2-2----2----------5-5-5-5--|
Eb ------------------------------------------------------------------------------------------|



Chorus (1:43) Guitar 1/Guitar 2

eb -------------------------------------------|\\
Bb -------------------------------------------| \\
Gb -------------------------------------------|  \\ x4
Db -5-5-5-5-----------7-7-7-7-7-7-7-7-7-------|  /
Ab -3-3-3-3--5-5-5-5--5-5-5-5-5-5-5-5-5-------| /
Eb ----------3-3-3-3--------------------------|/



Interlude (2:02)

Guitar 1/Guitar 2
eb -----------------------------------------------------------------------------|\\
Bb -----------------------------------------------------------------------------| \\
Gb -----------------------------------------------------------------------------|  \\ x2
Db -2-2-2-2--5-5-5-5-----------4-4-7-7--2-2-2-2--5-5-5-5-----------4-4--7-------|  /
Ab -2-2-2-2--3-3-3-3--5-5-5-5--2-2-5-5--2-2-2-2--3-3-3-3--5-5-5-5--2-2--5-------| /
Eb -0-0-0-0-----------3-3-3-3-----------0-0-0-0-----------3-3-3-3---------------|/


Guitar 1/Guitar 2
eb ----------------------------------------------------------|
Bb ----------------------------------------------------------|
Gb ----------------------------------------------------------|
Db -2----5--4--2----5--4--2----5--4--2----5--4--2------------|
Ab -2----3--2--2----3--2--2----3--2--2----3--2--2------------|
Eb -0----------0----------0----------0----------0------------|


Guitar 1
eb --------------------------------------------------------------------|
Bb ---8-7---8-7---8-7-8-7-8-7----8-7---8-7---8-7-10h8-7-8-7------------|
Gb -7-----7-----7--------------7-----7-----7---------------------------|
Db --------------------------------------------------------------------|
Ab --------------------------------------------------------------------|
Eb --------------------------------------------------------------------|


Guitar 2
eb ---------------------------------------|
Bb ---------------------------------------|
Gb ---------------------------------------|
Db -2----5--4--2----5--4-4-4-4-4----------|
Ab -2----3--2--2----3--2-2-2-2-2----------|
Eb -0----------0--------------------------|



Chorus (2:51) Guitar 1/Guitar 2

eb ----------------------------------------\\----------------|
Bb -----------------------------------------\\---------------|
Gb ------------------------------------------\\ x4-----------|
Db -5-5-5-5-----------7-7-7-7-7-7-7-7-7------/------2-2-2---|
Ab -3-3-3-3--5-5-5-5--5-5-5-5-5-5-5-5-5-----/-------2-2-2---|
Eb ----------3-3-3-3-----------------------/--------0-0-0---|
                                                  pm. .

Comments