Sum 41 - Still Waiting Chords & Tabs

 

Still Waiting Chords & Tabs

Sum 41 Chords & Tabs

Version: 7 Type: Tab 0 ratings
1 star 2 stars 3 stars 4 stars 5 stars
comments

Still Waiting Tab

-------------------------------------------------------------------------------
			     Sum 41 - Still Waiting
-------------------------------------------------------------------------------
This is the best version on the net all of the others are wrong.
By:
INTRO
e|---------------------------------------------------------------------------|
B|---------------------------------------------------------------------------|
G|---------------------------------------------------------------------------|
D|----9-9-9-9-9-9-9-9-5-5-5-5-5-5-5-5----------------------------------------|
A|----7-7-7-7-7-7-7-7-3-3-3-3-3-3-3-3-5-5-5-5-5-5-5-5-9-9-9-9-9-9-9-9--------|
E|------------------------------------3-3-3-3-3-3-3-3-7-7-7-7-7-7-7-7--------|x2
      PM . . . . . . . . . . . . . . . . . . . . . . . . . . . . . . .
BRIDGE
Guitar 1
e|---------------------------------------------------------------------------|
B|---------------------------------------------------------------------------|
G|---------------------------------------------------------------------------|
D|----12-10-12-12-10-12-12-10-12-13-12-11-7----------------------------------|
A|----------------------------------------------x2---------------------------|
E|----10--9-10-10--9-10-10--9-10-11-10--9-5----------------------------------|
Guitar 2
e|---------------------------------------------------------------------------|
B|---------------------------------------------------------------------------|
G|--------------------5-5-5-5-5-5-5-5-----------------4-4-4-4-4-4-4-4--------|
D|----2-2-2-2-2-2-2-2-5-5-5-5-5-5-5-5-2-2-2-2-2-2-2-2-4-4-4-4-4-4-4-4--------|
A|----2-2-2-2-2-2-2-2-3-3-3-3-3-3-3-3-2-2-2-2-2-2-2-2-2-2-2-2-2-2-2-2--------|
E|----0-0-0-0-0-0-0-0-----------------0-0-0-0-0-0-0-0------------------------|x2

VERSE
e|---------------------------------------------------------------------------|
B|---------------------------------------------------------------------------|
G|---------------------------------------------------------------------------|
D|----2-2-2-2-2-2-2-2-8\7-8\7-5/7-2-2-2-2-2-2-2-2-5-5-5-5-5-2----------------|
A|----2-2-2-2-2-2-2-2-------------2-2-2-2-2-2-2-2-----------2----------------|
E|----0-0-0-0-0-0-0-0-6\5-6\5-3/5-0-0-0-0-0-0-0-0-3-3-3-3-3-0----------------|x2

CHORUS same as intro but not palm muted
Thats all i know but this is 100% correct

===============================================================================
[ Tab from: http://www.guitartabs.cc/tabs/s/sum_41/still_waiting_tab_ver_7.html ]
Comments