Sum 41 - Still Waiting Chords & Tabs

 

Still Waiting Chords & Tabs

Sum 41 Chords & Tabs

Version: 3 Type: Tab 2 ratings
1 star 2 stars 3 stars 4 stars 5 stars
comments

Still Waiting Tab

Name: Still Waiting
Artists: SUM 41
Album: Does This Look Infected? (Out Nov.26!!!)
Tabbed By: David Huzyk

Ok, heres SUM 41's new singl off there new album coming out Nov.26. This song
is amazing, its harder than there usual stuff. I have to say this is there best
song ever. So I tabbed it out. Its not 100% correct, but for the song only being
out a week its pretty damn close.

Standard Tuning

ITNRO
Guitar 1
|--------------------------------------------------------------------
|--------------------------------------------------------------------
|-9-9-9-9-9-9-9-9--5-5-5-5-5-5-5-5----------------------------------- X2, but last
|-9-9-9-9-9-9-9-9--5-5-5-5-5-5-5-5--5-5-5-5-5-5-5-5--9-9-9-9-9-9-9-9- time let the last
|-7-7-7-7-7-7-7-7--3-3-3-3-3-3-3-3--5-5-5-5-5-5-5-5--9-9-9-9-9-9-9-9- note ring
|-----------------------------------3-3-3-3-3-3-3-3--7-7-7-7-7-7-7-7-
pm. . . . . . . .  . . . . . . . .  . . . . . . . .  . . . . . . . .


BRIDGE
Guitar 1
|------------------------------
|-8-7-8--8-7-8--8-7-8-10-8-7---
|----------------------------7- X2
|------------------------------
|------------------------------
|------------------------------

Guitar 2
|--------------------------------------------------------------------------------
|--------------------------------------------------------------------------------
|-9-9-9-9-9-9-9-9---------------------------9-9-9-9-9-9-9-9---------------------- X2
|-9-9-9-9-9-9-9-9--10-10-10-10-10-10-10-10--9-9-9-9-9-9-9-9--10-10-10-10-9-9-9-9-
|-7-7-7-7-7-7-7-7--10-10-10-10-10-10-10-10--7-7-7-7-7-7-7-7--10-10-10-10-9-9-9-9-
|-------------------8--8--8--8--8--8--8--8--------------------8--8--8--8-7-7-7-7-


VERSE 
Guitar 1 
|----------------------------------------------------------------
|---------------------------------------------------------------- X4, but 4th time hit the
|-9-9-9-9-9-9-9-9---------------------9-9-9-9-9-9-9-9------------ last note many times into
|-9-9-9-9-9-9-9-9--9/8\9--9/8\9--8\9--9-9-9-9-9-9-9-9--9-9-9-9-9- the chorus, and guitar 2 
|-7-7-7-7-7-7-7-7--x/x\x--x/x\x--x\x--7-7-7-7-7-7-7-7--9-9-9-9-9- pick scrapes into the chorus
|------------------7/6\7--7/6\7--6\7-------------------7-7-7-7-7-
pm. . . . . . . .                     . . . . . . . .    .   .

[ Tab from: http://www.guitartabs.cc/tabs/s/sum_41/still_waiting_tab_ver_3.html ]
CHORUS
Guitar 1&2
|--------------------------------------------------------------------
|--------------------------------------------------------------------
|-9-9-9-9-9-9-9-9--5-5-5-5-5-5-5-5----------------------------------- X2
|-9-9-9-9-9-9-9-9--5-5-5-5-5-5-5-5--5-5-5-5-5-5-5-5--9-9-9-9-9-9-9-9-
|-7-7-7-7-7-7-7-7--3-3-3-3-3-3-3-3--5-5-5-5-5-5-5-5--9-9-9-9-9-9-9-9-
|-----------------------------------3-3-3-3-3-3-3-3--7-7-7-7-7-7-7-7-

(play bridge again)
(play verse again)
(play chorus again)

THING AFTER CHORUS
Guitar 1&2
|--------------------------------------------------------------------
|--------------------------------------------------------------------
|-9--9-9--9-9-9-9--5--5-5--5-5-5-5----------------------------------- X2
|-9--9-9--9-9-9-9--5--5-5--5-5-5-5--5--5-5--5-5-5-5--9--9-9--9-9-9-9-
|-7--7-7--7-7-7-7--3--3-3--3-3-3-3--5--5-5--5-5-5-5--9--9-9--9-9-9-9-
|-----------------------------------3--3-3--3-3-3-3--7--7-7--7-7-7-7-

then, Guitar 1&2
|------------------------------------------
|------------------------------------------
|-9-9-9-9-9-9-9-9-------------------------- X4
|-9-9-9-9-9-9-9-9--10-10-10-12-12-12-12-12-
|-7-7-7-7-7-7-7-7--10-10-10-12-12-12-12-12-
|-------------------8--8--8-10-10-10-10-10-


INTERLUDE
Guitar 1 (plays in conjunction with guitar 2)
|---------------------------------------------------
|---------------------------------------------------
|-9-9-9---------5-5-5------------------------------- X1
|-9-9-9---------5-5-5----------5-5-5----------9-9-9-
|-7-7-7---------3-3-3----------5-5-5----------9-9-9-
|------------------------------3-3-3----------7-7-7-

then
|-------------                            |---
|-------------                            |---
|---4--------- X15, then hit this chord   |---
|-5---5p4-2h4- a few times into the chorus|-9-
|-------------                            |-9-
|-------------                            |-7-

Guitar 2
|--------------------------------------------------------------------------------
|--------------------------------------------------------------------------------
|-9-9-9-9-9-9-9-9-9-9-9-9-9-9-9-9--12-12-12-12-12-12-12-12--11-11-11-11--7-7-7-7- X5, and then
|-x-x-x-x-x-x-x-x-x-x-x-x-x-x-x-x---x--x--x--x--x--x--x--x---x--x--x--x--x-x-x-x- go into a 
|-7-7-7-7-7-7-7-7-7-7-7-7-7-7-7-7--10-10-10-10-10-10-10-10---9--9--9--9--5-5-5-5- pick scrape
|--------------------------------------------------------------------------------


(play chorus again twice)

END WITH
Guitar 1&2
|------------
|------------
|-9-9-9-9-9/-
|-9-9-9-9-9/-
|-7-7-7-7-7/-
|------------

and thats it! Like i said, its not pefect, but its pretty close. Close enough to play it with
the song and not really be able to hear a difference. The verse is off just a bit in the slide 
part and theres a little guitar bit missing in the background played by a 3rd guitar i dont have,
but still this should be a pretty good tab. Also buy there new cd when it comes out, Nov.26!!!
DOES THIS LOOK INFECTED?
any corrections/comments, e-mail me at Babaca_WIN_69@hotmail.com
Comments