Sum 41 - Still Waiting Chords & Tabs

 

Still Waiting Chords & Tabs

Sum 41 Chords & Tabs

Version: 2 Type: Tab 2 ratings
1 star 2 stars 3 stars 4 stars 5 stars
comments

Still Waiting Tab

			SUM 41 	Still Waiting
Tabed by Thomas Y


INTRO
----------------------------------------------------------
----------------------------------------------------------------
----------------------------------------------------------------
---88888888----------------------------------8------------------
---66666666--99999999---44444444---88888888--8------------------
-------------77777777---22222222---66666666--6------------------
   PM......................................

GUITAR 1  VERSE 1
----------------------------------------------------------------
----------------------------------------------------------------
--88888888------------88888888----------------------------------
--88888888--99999999--88888888--99999999--888----DO 2 TIMES-----
--66666666--99999999--66666666--99999999--888-------------------
------------77777777------------77777777--666-------------------

GUITAR 2   VERSE 1
 
----------------------------------------------------------------
-7-6-7---7-6-7---7-6-7-9-7-6-7---DO 2 TIMES---------------------
----------------------------------------------------------------
----------------------------------------------------------------
----------------------------------------------------------------
----------------------------------------------------------------

VERSE 2
----------------------------------------------------------------
----------------------------------------------------------------
--88888888---------------------88888888-------------------------
--88888888---7--4--5--4--7--4--88888888--8--9--8--9--8--9-------
--66666666---*--*--*--*--*--*--66666666--*--*--*--*--*--*-------
-------------5--6--7--6--5--6------------6--7--6--7--6--7-------
  PM.....                      PM......                 

------------------------------
------------------------------
--88888888--------------------
--88888888---7--4--5--4--7--4-
--66666666---*--*--*--*--*--*-
-------------5--6--7--6--5--6-
  PM.....                      

----------------------------------------------------------------
----------------------------------------------------------------
--88888888------------------------------------------------------
--88888888--8888888888888888--DO VERSE 2, 2 TIMES---------------
--66666666--8888888888888888------------------------------------
------------6666666666666666------------------------------------
  PM.....

CHORUS
----------------------------------------------------------------
----------------------------------------------------------------
-88888888-------------------------------------------------------
-88888888-99999999-44444444-88888888----------------------------
-66666666-99999999-44444444-88888888---DO 2 TIMES---------------
----------77777777-22222222-66666666----------------------------


GUITAR 1  VERSE 1
----------------------------------------------------------------
----------------------------------------------------------------
--88888888------------88888888----------------------------------
--88888888--99999999--88888888--99999999--888----DO 2 TIMES-----
--66666666--99999999--66666666--99999999--888-------------------
------------77777777------------77777777--666-------------------

GUITAR 2   VERSE 1
 
----------------------------------------------------------------
-7-6-7---7-6-7---7-6-7-9-7-6-7---DO 2 TIMES---------------------
----------------------------------------------------------------
----------------------------------------------------------------
----------------------------------------------------------------
----------------------------------------------------------------

[ Tab from: http://www.guitartabs.cc/tabs/s/sum_41/still_waiting_tab_ver_2.html ]
VERSE 2
----------------------------------------------------------------
----------------------------------------------------------------
--88888888---------------------88888888-------------------------
--88888888---7--4--5--4--7--4--88888888--8--9--8--9--8--9-------
--66666666---*--*--*--*--*--*--66666666--*--*--*--*--*--*-------
-------------5--6--7--6--5--6------------6--7--6--7--6--7-------
  PM.....                      PM......                    

------------------------------
------------------------------
--88888888--------------------
--88888888---7--4--5--4--7--4-
--66666666---*--*--*--*--*--*-
-------------5--6--7--6--5--6-
  PM.....                      

----------------------------------------------------------------
----------------------------------------------------------------
--88888888------------------------------------------------------
--88888888--8888888888888888--DO VERSE 2, 2 TIMES---------------
--66666666--8888888888888888------------------------------------
------------6666666666666666------------------------------------
  PM.....

CHORUS
----------------------------------------------------------------
----------------------------------------------------------------
-88888888-------------------------------------------------------
-88888888-99999999-44444444-88888888----------------------------
-66666666-99999999-44444444-88888888---DO 2 TIMES---------------
----------77777777-22222222-66666666----------------------------

INTERLUD
----------------------------------------------------------------
----------------------------------------------------------------
-8-8-8-8-8888-------------------------------------------DO 2 TIMES
-8-8-8-8-8888--7-7-7-7-7777--4-4-4-4-4444--8-8-8-8-8888---------
-6-6-6-6-6666--7-7-7-7-7777--4-4-4-4-4444--8-8-8-8-8888---------
---------------9-9-9-9-9999--2-2-2-2-2222--6-6-6-6-6666---------

----------------------------------------------------------------
----------------------------------------------------------------
--888-----------------------------------------------------------
--888-99--11----------------------------------------------------
--666-99--11---TIMES 4------------------------------------------
------77--9-----------------------------------------------------

GUITAR1
----------------------------------------------------------------
----------------------------------------------------------------
-888------------------------------------------------------------
-888------999-----444------888----------------------------------
-666------999-----444------888----------------------------------
----------777-----222------666----------------------------------


GUITAR 2                            thats the number 11
--------------------------------------------------
--------------------------------------------------
-8-8-8-8-8-8-8-8-8-8-8-8-8-8-8-8--1111111111111111
-*-*-*-*-*-*-*-*-*-*-*-*-*-*-*-*--1111111111111111
-6-6-6-6-6-6-6-6-6-6-6-6-6-6-6-6---9-9-9-9-9-9-9-9
--------------------------------------------------

-----------------
-----------------
-----------------
-8-8-8-8-8-8-8-8-TIMES 4
-*-*-*-*-*-*-*-*-
-6-6-6-6-6-6-6-6-



guitar1
----------------------------------------------------------------
----------------------------------------------------------------
----------------------------------------------------------------
--5-7-5h4-5-4--------- times 9 ---------------------------------
----------------------------------------------------------------
----------------------------------------------------------------



CHORUS
----------------------------------------------------------------
----------------------------------------------------------------
-88888888-------------------------------------------------------
-88888888-99999999-44444444-88888888----------------------------
-66666666-99999999-44444444-88888888---DO 4 TIMES---------------
----------77777777-22222222-66666666----------------------------

---------------------------
---------------------------
---------------------------
-88888--------------------------
-88888--------------------------
-66666--------------------------










Comments