Sum 41 - Still Waiting Chords & Tabs

 

Still Waiting Chords & Tabs

Sum 41 Chords & Tabs

Version: 11 Type: Tab 0 ratings
1 star 2 stars 3 stars 4 stars 5 stars
comments

Still Waiting Tab

   
Look out, there are some parts that are tabbed in half time. Also be ware of the
T's E's W's and F's that represent the tenth, eleventh, twelvth and fourteenth frets.

* = Palm Mute
\ = Slide Down
/ = Slide Up
p = Pull-Off
h = Hammer-On
X = Choked Note
T = Tenth Fret
E = Eleventh Fret
W = Twelveth Fret
F = Fourteenth Fret


Intro:
(First Guitar Only)
|--------------------------------|
|****************--------********|
|9999999955555555********44444444|
|99999999555555555555555544444444|
|77777777333333335555555522222222|
|----------------33333333--------|

|--------------------------------|
|****************--------********|
|9999999955555555********77777777|
|99999999555555555555555577777777|
|77777777333333335555555555555555|
|----------------33333333--------|

|--------|
|--------|
|7-------|
|7-------|
|5-----7\|
|------7\|


Intro 2:
(First Guitar)
|--------------------------------|
|--------------------------------|
|--------555-555---------555-----| X2
|222-222-555-555-222-222-555-555-|
|222-222-333-333-222-222-333-555-|
|000-000---------000-000-----333-|

(Second Guitar)
|--------------------------------|
|--------------------------------|
|--W-E-W---W-E-W---W-E-W-F-W-E-7-| X2
|--------------------------------|
|--T-9-T---T-9-T---T-9-T-W-T-9-5-|
|--------------------------------|


Verse:
(First Guitar Only)
(Tabbed in half time to show slides)
|--------------------------------|
|--------------------------------|
|----*-*-*-*-*-*-----------------|
|2---2-2-2-2-2-2-8\7---8\7---5/7-|
|2---2-2-2-2-2-2-8\7---8\7---5/7-|
|0---0-0-0-0-0-0-6\5---6\5---3/5-|

|--------------------------------|
|--------------------------------|
|----*-*-*-*-*-*-----------------|
|2---2-2-2-2-2-2-5-----5-----5---|
|2---2-2-2-2-2-2-5-----5-----5---|
|0---0-0-0-0-0-0-3---X-3---X-3---|

|--------------------------------|
|--------------------------------|
|----*-*-*-*-*-*-----------------|
|2---2-2-2-2-2-2-8\7---8\7---5/7-|
|2---2-2-2-2-2-2-8\7---8\7---5/7-|
|0---0-0-0-0-0-0-6\5---6\5---3/5-|

|--------------------------------|
|----------------*-*-------------|
|*-*-*-*-*-*-*-*-4-4-4---X-7-X-7-|
|5-5-5-5-5-5-5-5-4-4-4---X-7-X-7-|
|5-5-5-5-5-5-5-5-2-2-2---X-5-X-5-|
|3-3-3-3-3-3-3-3-----------------|

|--------------------------------|
|--------------------------------|
|----*-*-*-*-*-*-----------------|
|2---2-2-2-2-2-2-8\7---8\7---5/7-|
|2---2-2-2-2-2-2-8\7---8\7---5/7-|
|0---0-0-0-0-0-0-6\5---6\5---3/5-|

|--------------------------------|
|--------------------------------|
|----*-*-*-*-*-*-----------------|
|2---2-2-2-2-2-2-5-----5-----5---|
|2---2-2-2-2-2-2-5-----5-----5---|
|0---0-0-0-0-0-0-3---X-3---X-3---|

|--------------------------------|
|--------------------------------|
|----*-*-*-*-*-*-----------------|
|2---2-2-2-2-2-2-8\7---8\7---5/7-|
|2---2-2-2-2-2-2-8\7---8\7---5/7-|
|0---0-0-0-0-0-0-6\5---6\5---3/5-|

|--------------------------------|
|----------------*-*-*-*-*-*-*-*-|
|*-*-*-*-*-*-*-*-4-4-4-4-4-4-4-4-|
|5-5-5-5-5-5-5-5-4-4-4-4-4-4-4-4-|
|5-5-5-5-5-5-5-5-2-2-2-2-2-2-2-2-|
|3-3-3-3-3-3-3-3-----------------|

|----------------|
|----------------|
|4-4-4-4-4-4-4-4-|
|4-4-4-4-4-4-4-4-|
|2-2-2-2-2-2-2-2-|
|----------------|
(Guitar 2 does pick slide here)


Chorus:
(Guitar 1)
|--------------------------------|
|--------------------------------|
|9-9999995-555555--------4-444444| X2
|9-9999995-5555555-5555554-444444|
|7-7777773-3333335-5555552-222222|
|----------------3-333333--------|
[ Tab from: http://www.guitartabs.cc/tabs/s/sum_41/still_waiting_tab_ver_11.html ]
(Guitar 2)
|--------------------------------|
|--------------------------------|
|--------5-555555--------4-444444| X2
|2-2222225-5555555-5555554-444444|
|2-2222223-3333335-5555552-222222|
|0-000000--------3-333333--------|


Fill:
(Guitar 2)
|--------------------------------|
|--------------------------------|
|--------555'------------555'----|
|222'----555'----222'----555'555'|
|222'----333'----222'----333'555'|
|000'------------000'--------333'|

(Second Guitar)
|--------------------------------|
|--------------------------------|
|--W-E-W---W-E-W---W-E-W-F-W-E-7-|
|--------------------------------|
|--T-9-T---T-9-T---T-9-T-W-T-9-5-|
|--------------------------------|


REPEAT VERSE
(First Guitar Only)


REPEAT CHORUS
(Both Parts)


Bridge:
(Second Guitar)
|--------------------------------|
|--------------------------------|
|--------555-5-55----777744447777| X2
|222-2-22555-5-555555777744447777|
|222-2-22333-3-335555555522225555|
|000-0-00--------3333------------|

|--------------------------------|
|--------------------------------|
|99999999555577779999999955557777| X2
|99999999555577779999999955557777|
|77777777333355557777777733335555|
|--------------------------------|

(First Guitar)
|--------------------------------|
|--------------------------------|
|9999999999999999WWWWEEEE9999EEEE| X2
|--------------------------------|
|7777777777777777TTTT999977779999|
|--------------------------------|


|--------------------------------|
|--------------------------------|
|99999999WWWWEEEE99999999WWWWEEEE| X2
|--------------------------------|
|77777777TTTT999977777777TTTT9999|
|--------------------------------|


Bridge 2:
(Second Guitar)
|--------------------------------|
|--------------------------------|
|--------555'------------444'----|
|222'----555'----555'----444'----|
|222'----333'----555'----222'----|
|000'------------333'------------|

|--------------------------------|
|--------------------------------|
|--------555-------------444--7--|
|222-----555-----555-----444--7--|
|222-----333-----555-----222--5--|
|000-------------333-------------|

|--------------------------------|
|--------------------------------|
|--------555-------------44444444|
|222-----555-----555-----44444444|
|222-----333-----555-----22222222|
|000-------------333-------------|

|--------------------------------|
|--------------------------------|
|--------555-555---------44444444|
|222-222-555-555-555-555-44444444|
|222-222-333-333-555-555-22222222|
|000-000---------333-333---------|

|--------------------------------|
|--------------------------******|
|--------555-555---------4-444444|
|222-222-555-555-555-555-4-444444|
|222-222-333-333-555-555-2-222222|
|000-000---------333-333---------|

|--------|
|P--S----|
|-I--L---|
|--C--I--|
|---K--D-|
|-------E|

(First Guitar)
|--------------------------------|
|--------------------------------|
|9999999999999999WWWWWWWWEEEEEEEE|
|--------------------------------|
|7777777777777777TTTTTTTT99999999|
|--------------------------------|

(Solo in half time to show slides, ect.)
|--------------------------------|
|--------------------------------|
|--------------------------------|
|----9---------------9-----------|
|7-------Tp9---9-7-------Tp9---9-|
|------------T---------------T---|
                                    Solo X4
|--------------------------------|
|--------------------------------|
|--------------------------------| 
|----9---------------------------|
|T-------Tp9---9-9---9hT/W\T-9hT-|
|------------T-------------------|

(add this fill at the end of fourth time)
|----------------|
|----------------|
|----------------|
|----------------|
|9---9hT/W\T-9hT-|
|----------------|


REPEAT CHORUS X2


End with...
(First)
|----------|
|----------|
|999999999\|
|999999999\|
|777777777\|
|----------|

(Second)
|----------|
|----------|
|----------|
|222222222\|
|222222222\|
|000000000\|
Comments