Sum 41 - Some Say Chords & Tabs

 

Some Say Chords & Tabs

Sum 41 Chords & Tabs

Version: 3 Type: Tab 0 ratings
1 star 2 stars 3 stars 4 stars 5 stars
comments

Some Say Tab

   
First of All- SUm 41 Kick Ass...

*Tune Half A Step Down Before Your Start (EB TUNING)

*The Intro Is The Verse So There Is No Intro..Or You Could Say The Verse is The Intro

The Chords That Are In The Song Surround These- Bm, Dm, Em, D, G, and A, SIMPLE

VERSE (INTRO)...Some say We're Never Meant to Grow Up

   Bm          D       Em     G
Eb|-2------------------------------------|
Bb|-2-3----------------------------------|
Gb|-2---4----------7---------------------|  x2
Db|-2---4----------7-----2--------5------|
Ab|-2----------5---------2--------5------|
Eb|-2--------------------0------3--------|

*I lIke PLaying Bm On The Bar

CHORUS
(THINK BEFORE YOU MAKE UP YOUR MIND)

   Bm        G        D       A        Em      G
Eb|-2---------------------------------------------|
Bb|-2-3-------------------------------------------|
Gb|-2---4---------------7-------------------------|
Db|-2---4-----5---------7-------7-------2-------5-|
Ab|-2---------5------5----------7-------2-------5-|
Eb|-2-------3----------------5--------0-------3---|


AND IF I FALL....
      D        A     Em      G
Eb|----------------------------------------|
Bb|----------------------------------------|
Gb|----7-----------------------------------|
Db|----7--------7------2--------5----------|
Ab|-5-----------7------2--------5----------|
Eb|----------5-------0-------3-------------|

IT'S SO EASY AFTER ALL

[ Tab from: http://www.guitartabs.cc/tabs/s/sum_41/some_say_tab_ver_3.html ]
VERSE 2
i couldn't be stuffed righting this out in tab...I'M SORRY

----BELIEVE ME 'CAUSE NOW'S THE TIME TO TRY.......

Bm, DM, Em, G X2

      Bm       DM       Em      G

Eb|---2---------1-----------------------------|
Bb|---2--3---------3--------------------------|
Gb|---2-----4---2-----------------------------|   X2
Db|---2-----4-------------2------5------------|
Ab|---2-------------------2------5------------|
Eb|---2-----------------0------3--------------|


REPEAT FOR: ----SEEMS LIKE EVERYTHING WE KNEW----- (this is still VERSE 2)


* VERSE 2 IS PLAYED IN TOTAL 4 TIMES ( ENDS WITH YOU MUST BE DREAMING)


~CHORUS~

VERSE 3: SAME CHORDS AS VERSE 2 (BM, DM, EM, G)....(SOME SAY WE'RE BETTER OFF 
ENDS ON IT'S TOO LATE

VERSE 3: X2 (SOMEHOW IT'S DIFFERENT EVERYDAY).....ENDS ON G...I MUST BE DREAMING


~CHOURS~

(Bm,G,D,A,Em,G,Bm,G,D,A,Em,G,D,A,Em,G)

~OUTRO~
(BELIEVE ME, IT'S ALRIGHT)

    Bm        G     D    A
eb|-2----------------------|
Bb|-2--3-------------------|
Gb|-2----4----------7------|
Db|-2----4----5-----7----7-|
Ab|-2---------5---5------7-|
Eb|-2-------3----------5---|


END NOTE IS: G

eb|-------|
Bb|-------|
Gb|-------|
Db|---5---|
Ab|---5---|
Eb|---3---|


SEND ME ANY CORECTIONS AND STUFF TO WHATWOULDJESUSDO01@HOTMAIL.COM

-SCOTT
Comments