Sum 41 - Slipping Away Chords & Tabs

 

Slipping Away Chords & Tabs

Sum 41 Chords & Tabs

Version: 3 Type: Tab 0 ratings
1 star 2 stars 3 stars 4 stars 5 stars
comments

Slipping Away Tab

   
tune down half a step...

lets call this chord C minor    e-x
                                b-x
                                g-2
                                d-2
                                a-4
                                E-x

intro:

d major,E minor,g major,E minor,g major.  x2

verse:

d major,C# minor,g major,E minor,g major.  x4

you also play this during the verse a few times

e---------------------------------------|
b----------------*12--------------------|  * harmonics
g--7-7-7-7-----------*12----------------|
d--5-5-5-5------------------------------|
a---------------------------------------|
E---------------------------------------|

and on the 3rd time round on the verse a second guitar plays a lead
[ Tab from: http://www.guitartabs.cc/tabs/s/sum_41/slipping_away_tab_ver_3.html ]
e------0-------0-------2-------2-------5-----5---------3-------2---|
b----3---3---3---3---3---3---3---3---3---3-----3-----3---3---3---3-|
g--0-------0-------0-------0-------0-------0-----0-4-------3-------|  x2
d------------------------------------------------------------------|
a------------------------------------------------------------------|
E------------------------------------------------------------------|

chorus:

E minor,g major,d major,C# minor x2

E minor,g major

then you palm mute thes notes

e-------------------------------------|
b-------------------------------------|
g-------------------------------------|
d--7-7-7-7-7-7-7-7-6-6-6-6-6-6-6-66---|
a--5-5-5-5-5-5-5-5-4-4-4-4-4-4-4-44-5-|
E-----------------------------------3-|  play these last notes open

now a celo just plays the chorus again...a beautiful song by sum 41...

submitted by aftabblink182@hotmail.com

have fun cos this song is 100% accurate...
Comments